ISO-10303-21;
HEADER;
FILE_DESCRIPTION (( 'STEP AP203' ),
    '1' );
FILE_NAME ('977837.step',
    '2023-02-01T15:37:58',
    ( '' ),
    ( '' ),
    'SwSTEP 2.0',
    'SolidWorks 2019',
    '' );
FILE_SCHEMA (( 'CONFIG_CONTROL_DESIGN' ));
ENDSEC;

DATA;
#1 = ORIENTED_EDGE ( 'NONE', *, *, #49, .T. ) ;
#2 = EDGE_LOOP ( 'NONE', ( #155 ) ) ;
#3 = EDGE_LOOP ( 'NONE', ( #32 ) ) ;
#4 = EDGE_CURVE ( 'NONE', #193, #193, #121, .T. ) ;
#5 = PLANE ( 'NONE',  #86 ) ;
#6 = APPLICATION_PROTOCOL_DEFINITION ( 'international standard', 'config_control_design', 1994, #185 ) ;
#7 = FACE_OUTER_BOUND ( 'NONE', #52, .T. ) ;
#8 = CARTESIAN_POINT ( 'NONE',  ( 1.745740669421566678E-13, 1.999999999999994005, 50.00000000000000000 ) ) ;
#9 = CARTESIAN_POINT ( 'NONE',  ( 1.745740669421566678E-14, -6.123233995736766282E-16, 5.000000000000000000 ) ) ;
#10 = APPROVAL_STATUS ( 'not_yet_approved' ) ;
#11 = ADVANCED_FACE ( 'NONE', ( #158 ), #183, .F. ) ;
#12 = CALENDAR_DATE ( 2023, 1, 2 ) ;
#13 = COORDINATED_UNIVERSAL_TIME_OFFSET ( 1, 0, .AHEAD. ) ;
#14 = CALENDAR_DATE ( 2023, 1, 2 ) ;
#15 = FACE_OUTER_BOUND ( 'NONE', #167, .T. ) ;
#16 = PRODUCT_DEFINITION_SHAPE ( 'NONE', 'NONE',  #31 ) ;
#17 = EDGE_LOOP ( 'NONE', ( #154 ) ) ;
#18 = CIRCLE ( 'NONE', #159, 2.500000000000000000 ) ;
#19 = ORIENTED_EDGE ( 'NONE', *, *, #157, .T. ) ;
#20 = EDGE_LOOP ( 'NONE', ( #1 ) ) ;
#21 = VERTEX_POINT ( 'NONE', #187 ) ;
#22 = LOCAL_TIME ( 16, 37, 58.00000000000000000, #13 ) ;
#23 = PRODUCT_RELATED_PRODUCT_CATEGORY ( 'detail', '', ( #73 ) ) ;
#24 = CARTESIAN_POINT ( 'NONE',  ( 1.745740669421566678E-14, 2.499999999999999556, 5.000000000000000000 ) ) ;
#25 = DIRECTION ( 'NONE',  ( 0.000000000000000000, 1.000000000000000000, 0.000000000000000000 ) ) ;
#26 = AXIS2_PLACEMENT_3D ( 'NONE', #51, #57, #97 ) ;
#27 = MECHANICAL_CONTEXT ( 'NONE', #185, 'mechanical' ) ;
#28 = APPROVAL_ROLE ( '' ) ;
#29 = CIRCLE ( 'NONE', #135, 2.000000000000000000 ) ;
#30 = SHAPE_DEFINITION_REPRESENTATION ( #16, #153 ) ;
#31 = PRODUCT_DEFINITION ( 'UNKNOWN', '', #118, #41 ) ;
#32 = ORIENTED_EDGE ( 'NONE', *, *, #157, .F. ) ;
#33 = AXIS2_PLACEMENT_3D ( 'NONE', #119, #53, #105 ) ;
#34 = DIRECTION ( 'NONE',  ( -3.491481338843133355E-15, 1.224646799147353207E-16, -1.000000000000000000 ) ) ;
#35 = VERTEX_POINT ( 'NONE', #24 ) ;
#36 = APPROVAL ( #10, 'UNSPECIFIED' ) ;
#37 = EDGE_LOOP ( 'NONE', ( #67 ) ) ;
#38 = DIRECTION ( 'NONE',  ( 4.275831445896958607E-31, 1.000000000000000000, 1.224646799147353207E-16 ) ) ;
#39 = DATE_TIME_ROLE ( 'creation_date' ) ;
#40 =( LENGTH_UNIT ( ) NAMED_UNIT ( * ) SI_UNIT ( .MILLI., .METRE. ) );
#41 = DESIGN_CONTEXT ( 'detailed design', #104, 'design' ) ;
#42 = DIRECTION ( 'NONE',  ( 4.275831445896958607E-31, 1.000000000000000000, 1.224646799147353207E-16 ) ) ;
#43 = AXIS2_PLACEMENT_3D ( 'NONE', #71, #161, #143 ) ;
#44 = CARTESIAN_POINT ( 'NONE',  ( 1.745740669421566678E-14, 1.874699728327321462E-32, 5.000000000000000000 ) ) ;
#45 = UNCERTAINTY_MEASURE_WITH_UNIT (LENGTH_MEASURE( 1.000000000000000082E-05 ), #40, 'distance_accuracy_value', 'NONE');
#46 = CC_DESIGN_APPROVAL ( #138, ( #192 ) ) ;
#47 = PERSON_AND_ORGANIZATION_ROLE ( 'design_supplier' ) ;
#48 = DIRECTION ( 'NONE',  ( -3.491481338843133355E-15, 1.224646799147353207E-16, -1.000000000000000000 ) ) ;
#49 = EDGE_CURVE ( 'NONE', #21, #21, #151, .T. ) ;
#50 = DIRECTION ( 'NONE',  ( -3.491481338843133355E-15, 1.224646799147353207E-16, -1.000000000000000000 ) ) ;
#51 = CARTESIAN_POINT ( 'NONE',  ( 1.745740669421566678E-13, 1.499759782661848302E-32, 50.00000000000000000 ) ) ;
#52 = EDGE_LOOP ( 'NONE', ( #142 ) ) ;
#53 = DIRECTION ( 'NONE',  ( -3.491481338843133355E-15, 1.224646799147353207E-16, -1.000000000000000000 ) ) ;
#54 = COORDINATED_UNIVERSAL_TIME_OFFSET ( 1, 0, .AHEAD. ) ;
#55 = CARTESIAN_POINT ( 'NONE',  ( 1.728283262727351074E-13, 2.499999999999993783, 49.50000000000000000 ) ) ;
#56 = CONICAL_SURFACE ( 'NONE', #191, 2.500000000000000000, 0.7853981633974479459 ) ;
#57 = DIRECTION ( 'NONE',  ( -3.491481338843133355E-15, 1.224646799147353207E-16, -1.000000000000000000 ) ) ;
#58 = PERSON_AND_ORGANIZATION ( #126, #181 ) ;
#59 = DIRECTION ( 'NONE',  ( -3.491481338843133355E-15, 1.224646799147353207E-16, -1.000000000000000000 ) ) ;
#60 = COORDINATED_UNIVERSAL_TIME_OFFSET ( 1, 0, .AHEAD. ) ;
#61 = AXIS2_PLACEMENT_3D ( 'NONE', #134, #48, #42 ) ;
#62 = CC_DESIGN_PERSON_AND_ORGANIZATION_ASSIGNMENT ( #95, #122, ( #73 ) ) ;
#63 = FACE_OUTER_BOUND ( 'NONE', #3, .T. ) ;
#64 =( GEOMETRIC_REPRESENTATION_CONTEXT ( 3 ) GLOBAL_UNCERTAINTY_ASSIGNED_CONTEXT ( ( #45 ) ) GLOBAL_UNIT_ASSIGNED_CONTEXT ( ( #40, #96, #110 ) ) REPRESENTATION_CONTEXT ( 'NONE', 'WORKASPACE' ) );
#65 = CC_DESIGN_SECURITY_CLASSIFICATION ( #192, ( #118 ) ) ;
#66 = FACE_OUTER_BOUND ( 'NONE', #2, .T. ) ;
#67 = ORIENTED_EDGE ( 'NONE', *, *, #165, .T. ) ;
#68 = CYLINDRICAL_SURFACE ( 'NONE', #124, 2.500000000000000000 ) ;
#69 = APPROVAL ( #148, 'UNSPECIFIED' ) ;
#70 = PERSON_AND_ORGANIZATION ( #126, #181 ) ;
#71 = CARTESIAN_POINT ( 'NONE',  ( 0.000000000000000000, 0.000000000000000000, 0.000000000000000000 ) ) ;
#72 = CLOSED_SHELL ( 'NONE', ( #186, #152, #101, #11 ) ) ;
#73 = PRODUCT ( '977837', '977837', '', ( #27 ) ) ;
#74 = PLANE ( 'NONE',  #180 ) ;
#75 = VERTEX_POINT ( 'NONE', #174 ) ;
#76 = COORDINATED_UNIVERSAL_TIME_OFFSET ( 1, 0, .AHEAD. ) ;
#77 = MANIFOLD_SOLID_BREP ( 'Corps-Déplacer/Copier1[2]', #107 ) ;
#78 = ADVANCED_FACE ( 'NONE', ( #7 ), #74, .T. ) ;
#79 = COORDINATED_UNIVERSAL_TIME_OFFSET ( 1, 0, .AHEAD. ) ;
#80 = PERSON_AND_ORGANIZATION_ROLE ( 'creator' ) ;
#81 = EDGE_LOOP ( 'NONE', ( #19 ) ) ;
#82 = EDGE_CURVE ( 'NONE', #189, #189, #29, .T. ) ;
#83 = ORIENTED_EDGE ( 'NONE', *, *, #82, .F. ) ;
#84 = CC_DESIGN_PERSON_AND_ORGANIZATION_ASSIGNMENT ( #100, #47, ( #118 ) ) ;
#85 = APPROVAL_ROLE ( '' ) ;
#86 = AXIS2_PLACEMENT_3D ( 'NONE', #109, #94, #98 ) ;
#87 = APPLICATION_PROTOCOL_DEFINITION ( 'international standard', 'config_control_design', 1994, #104 ) ;
#88 = APPROVAL_STATUS ( 'not_yet_approved' ) ;
#89 = LOCAL_TIME ( 16, 37, 58.00000000000000000, #79 ) ;
#90 = APPROVAL_ROLE ( '' ) ;
#91 = APPROVAL_PERSON_ORGANIZATION ( #199, #138, #90 ) ;
#92 = LOCAL_TIME ( 16, 37, 58.00000000000000000, #54 ) ;
#93 = DIRECTION ( 'NONE',  ( 4.275831445896958607E-31, 1.000000000000000000, 1.224646799147353207E-16 ) ) ;
#94 = DIRECTION ( 'NONE',  ( 3.491481338843133355E-15, -1.224646799147353207E-16, 1.000000000000000000 ) ) ;
#95 = PERSON_AND_ORGANIZATION ( #126, #181 ) ;
#96 =( NAMED_UNIT ( * ) PLANE_ANGLE_UNIT ( ) SI_UNIT ( $, .RADIAN. ) );
#97 = DIRECTION ( 'NONE',  ( 4.275831445896958607E-31, 1.000000000000000000, 1.224646799147353207E-16 ) ) ;
#98 = DIRECTION ( 'NONE',  ( -4.275831445896958607E-31, -1.000000000000000000, -1.224646799147353207E-16 ) ) ;
#99 = AXIS2_PLACEMENT_3D ( 'NONE', #175, #194, #38 ) ;
#100 = PERSON_AND_ORGANIZATION ( #126, #181 ) ;
#101 = ADVANCED_FACE ( 'NONE', ( #150, #133 ), #56, .T. ) ;
#102 = CC_DESIGN_PERSON_AND_ORGANIZATION_ASSIGNMENT ( #70, #123, ( #31 ) ) ;
#103 = CC_DESIGN_APPROVAL ( #69, ( #118 ) ) ;
#104 = APPLICATION_CONTEXT ( 'configuration controlled 3d designs of mechanical parts and assemblies' ) ;
#105 = DIRECTION ( 'NONE',  ( 0.000000000000000000, 1.000000000000000000, 0.000000000000000000 ) ) ;
#106 = DIRECTION ( 'NONE',  ( -3.491481338843133355E-15, 1.224646799147353207E-16, -1.000000000000000000 ) ) ;
#107 = CLOSED_SHELL ( 'NONE', ( #196, #111, #78 ) ) ;
#108 = DATE_AND_TIME ( #173, #92 ) ;
#109 = CARTESIAN_POINT ( 'NONE',  ( 1.745740669421566678E-14, 1.874699728327321462E-32, 5.000000000000000000 ) ) ;
#110 =( NAMED_UNIT ( * ) SI_UNIT ( $, .STERADIAN. ) SOLID_ANGLE_UNIT ( ) );
#111 = ADVANCED_FACE ( 'NONE', ( #182, #63 ), #68, .T. ) ;
#112 = CIRCLE ( 'NONE', #61, 2.500000000000000000 ) ;
#113 = DATE_AND_TIME ( #12, #22 ) ;
#114 = DATE_AND_TIME ( #14, #130 ) ;
#115 = DIRECTION ( 'NONE',  ( -3.491481338843133355E-15, 1.224646799147353207E-16, -1.000000000000000000 ) ) ;
#116 = PERSON_AND_ORGANIZATION_ROLE ( 'classification_officer' ) ;
#117 = CARTESIAN_POINT ( 'NONE',  ( 0.000000000000000000, 0.000000000000000000, 0.000000000000000000 ) ) ;
#118 = PRODUCT_DEFINITION_FORMATION_WITH_SPECIFIED_SOURCE ( 'ANY', '', #73, .NOT_KNOWN. ) ;
#119 = CARTESIAN_POINT ( 'NONE',  ( 1.728283262727351074E-13, -6.062001655779398511E-15, 49.50000000000000000 ) ) ;
#120 = EDGE_LOOP ( 'NONE', ( #83 ) ) ;
#121 = CIRCLE ( 'NONE', #33, 2.500000000000000000 ) ;
#122 = PERSON_AND_ORGANIZATION_ROLE ( 'design_owner' ) ;
#123 = PERSON_AND_ORGANIZATION_ROLE ( 'creator' ) ;
#124 = AXIS2_PLACEMENT_3D ( 'NONE', #139, #34, #93 ) ;
#125 = CALENDAR_DATE ( 2023, 1, 2 ) ;
#126 = PERSON ( 'UNSPECIFIED', 'UNSPECIFIED', 'UNSPECIFIED', ('UNSPECIFIED'), ('UNSPECIFIED'), ('UNSPECIFIED') ) ;
#127 = DIRECTION ( 'NONE',  ( 0.000000000000000000, 1.000000000000000000, 0.000000000000000000 ) ) ;
#128 = APPROVAL_DATE_TIME ( #144, #36 ) ;
#129 = MANIFOLD_SOLID_BREP ( 'Corps-Déplacer/Copier1[1]', #72 ) ;
#130 = LOCAL_TIME ( 16, 37, 58.00000000000000000, #60 ) ;
#131 = DIRECTION ( 'NONE',  ( -4.275831445896958607E-31, -1.000000000000000000, -1.224646799147353207E-16 ) ) ;
#132 = DATE_TIME_ROLE ( 'classification_date' ) ;
#133 = FACE_OUTER_BOUND ( 'NONE', #17, .T. ) ;
#134 = CARTESIAN_POINT ( 'NONE',  ( -1.068957861474239564E-30, 3.749399456654644020E-32, -3.061616997868383141E-16 ) ) ;
#135 = AXIS2_PLACEMENT_3D ( 'NONE', #195, #59, #136 ) ;
#136 = DIRECTION ( 'NONE',  ( 0.000000000000000000, 1.000000000000000000, 0.000000000000000000 ) ) ;
#137 = SECURITY_CLASSIFICATION_LEVEL ( 'unclassified' ) ;
#138 = APPROVAL ( #88, 'UNSPECIFIED' ) ;
#139 = CARTESIAN_POINT ( 'NONE',  ( 0.000000000000000000, 0.000000000000000000, 0.000000000000000000 ) ) ;
#140 = DIRECTION ( 'NONE',  ( -3.491481338843133355E-15, 1.224646799147353207E-16, -1.000000000000000000 ) ) ;
#141 = ORIENTED_EDGE ( 'NONE', *, *, #82, .T. ) ;
#142 = ORIENTED_EDGE ( 'NONE', *, *, #49, .F. ) ;
#143 = DIRECTION ( 'NONE',  ( 1.000000000000000000, 0.000000000000000000, 0.000000000000000000 ) ) ;
#144 = DATE_AND_TIME ( #125, #197 ) ;
#145 = APPROVAL_PERSON_ORGANIZATION ( #147, #36, #85 ) ;
#146 = FACE_OUTER_BOUND ( 'NONE', #37, .T. ) ;
#147 = PERSON_AND_ORGANIZATION ( #126, #181 ) ;
#148 = APPROVAL_STATUS ( 'not_yet_approved' ) ;
#149 = CC_DESIGN_PERSON_AND_ORGANIZATION_ASSIGNMENT ( #164, #80, ( #118 ) ) ;
#150 = FACE_BOUND ( 'NONE', #188, .T. ) ;
#151 = CIRCLE ( 'NONE', #184, 2.500000000000000000 ) ;
#152 = ADVANCED_FACE ( 'NONE', ( #66, #15 ), #166, .T. ) ;
#153 = ADVANCED_BREP_SHAPE_REPRESENTATION ( '977837', ( #129, #77, #43 ), #64 ) ;
#154 = ORIENTED_EDGE ( 'NONE', *, *, #4, .F. ) ;
#155 = ORIENTED_EDGE ( 'NONE', *, *, #4, .T. ) ;
#156 = FACE_OUTER_BOUND ( 'NONE', #81, .T. ) ;
#157 = EDGE_CURVE ( 'NONE', #75, #75, #112, .T. ) ;
#158 = FACE_OUTER_BOUND ( 'NONE', #120, .T. ) ;
#159 = AXIS2_PLACEMENT_3D ( 'NONE', #160, #106, #127 ) ;
#160 = CARTESIAN_POINT ( 'NONE',  ( 1.745740669421566678E-14, -6.123233995736766282E-16, 5.000000000000000000 ) ) ;
#161 = DIRECTION ( 'NONE',  ( 0.000000000000000000, 0.000000000000000000, 1.000000000000000000 ) ) ;
#162 = APPROVAL_DATE_TIME ( #178, #69 ) ;
#163 = CC_DESIGN_APPROVAL ( #36, ( #31 ) ) ;
#164 = PERSON_AND_ORGANIZATION ( #126, #181 ) ;
#165 = EDGE_CURVE ( 'NONE', #35, #35, #18, .T. ) ;
#166 = CYLINDRICAL_SURFACE ( 'NONE', #176, 2.500000000000000000 ) ;
#167 = EDGE_LOOP ( 'NONE', ( #169 ) ) ;
#168 = DIRECTION ( 'NONE',  ( 4.275831445896958607E-31, 1.000000000000000000, 1.224646799147353207E-16 ) ) ;
#169 = ORIENTED_EDGE ( 'NONE', *, *, #165, .F. ) ;
#170 = CC_DESIGN_PERSON_AND_ORGANIZATION_ASSIGNMENT ( #58, #116, ( #192 ) ) ;
#171 = PLANE ( 'NONE',  #99 ) ;
#172 = APPROVAL_PERSON_ORGANIZATION ( #200, #69, #28 ) ;
#173 = CALENDAR_DATE ( 2023, 1, 2 ) ;
#174 = CARTESIAN_POINT ( 'NONE',  ( 0.000000000000000000, 2.500000000000000000, 0.000000000000000000 ) ) ;
#175 = CARTESIAN_POINT ( 'NONE',  ( -5.344789307371197820E-31, 1.874699728327322010E-32, -1.530808498934191571E-16 ) ) ;
#176 = AXIS2_PLACEMENT_3D ( 'NONE', #117, #140, #168 ) ;
#177 = CALENDAR_DATE ( 2023, 1, 2 ) ;
#178 = DATE_AND_TIME ( #177, #89 ) ;
#179 = APPROVAL_DATE_TIME ( #114, #138 ) ;
#180 = AXIS2_PLACEMENT_3D ( 'NONE', #44, #198, #131 ) ;
#181 = ORGANIZATION ( 'UNSPECIFIED', 'UNSPECIFIED', '' ) ;
#182 = FACE_OUTER_BOUND ( 'NONE', #20, .T. ) ;
#183 = PLANE ( 'NONE',  #26 ) ;
#184 = AXIS2_PLACEMENT_3D ( 'NONE', #9, #50, #25 ) ;
#185 = APPLICATION_CONTEXT ( 'configuration controlled 3d designs of mechanical parts and assemblies' ) ;
#186 = ADVANCED_FACE ( 'NONE', ( #146 ), #5, .F. ) ;
#187 = CARTESIAN_POINT ( 'NONE',  ( 1.745740669421566678E-14, 2.499999999999999556, 5.000000000000000000 ) ) ;
#188 = EDGE_LOOP ( 'NONE', ( #141 ) ) ;
#189 = VERTEX_POINT ( 'NONE', #8 ) ;
#190 = CC_DESIGN_DATE_AND_TIME_ASSIGNMENT ( #113, #132, ( #192 ) ) ;
#191 = AXIS2_PLACEMENT_3D ( 'NONE', #201, #115, #202 ) ;
#192 = SECURITY_CLASSIFICATION ( '', '', #137 ) ;
#193 = VERTEX_POINT ( 'NONE', #55 ) ;
#194 = DIRECTION ( 'NONE',  ( -3.491481338843133355E-15, 1.224646799147353207E-16, -1.000000000000000000 ) ) ;
#195 = CARTESIAN_POINT ( 'NONE',  ( 1.745740669421566678E-13, -6.123233995736766085E-15, 50.00000000000000000 ) ) ;
#196 = ADVANCED_FACE ( 'NONE', ( #156 ), #171, .T. ) ;
#197 = LOCAL_TIME ( 16, 37, 58.00000000000000000, #76 ) ;
#198 = DIRECTION ( 'NONE',  ( 3.491481338843133355E-15, -1.224646799147353207E-16, 1.000000000000000000 ) ) ;
#199 = PERSON_AND_ORGANIZATION ( #126, #181 ) ;
#200 = PERSON_AND_ORGANIZATION ( #126, #181 ) ;
#201 = CARTESIAN_POINT ( 'NONE',  ( 1.728283262727351074E-13, -6.062001655779398511E-15, 49.50000000000000000 ) ) ;
#202 = DIRECTION ( 'NONE',  ( 0.000000000000000000, 1.000000000000000000, 0.000000000000000000 ) ) ;
#203 = CC_DESIGN_DATE_AND_TIME_ASSIGNMENT ( #108, #39, ( #31 ) ) ;
ENDSEC;
END-ISO-10303-21;
