ISO-10303-21;
HEADER;
FILE_DESCRIPTION (( 'STEP AP203' ),
    '1' );
FILE_NAME ('977836.step',
    '2023-02-01T15:37:58',
    ( '' ),
    ( '' ),
    'SwSTEP 2.0',
    'SolidWorks 2019',
    '' );
FILE_SCHEMA (( 'CONFIG_CONTROL_DESIGN' ));
ENDSEC;

DATA;
#1 = AXIS2_PLACEMENT_3D ( 'NONE', #105, #176, #17 ) ;
#2 = EDGE_LOOP ( 'NONE', ( #195 ) ) ;
#3 =( LENGTH_UNIT ( ) NAMED_UNIT ( * ) SI_UNIT ( .MILLI., .METRE. ) );
#4 = CARTESIAN_POINT ( 'NONE',  ( 1.466422162314116009E-13, -5.143516556418884900E-15, 42.00000000000000000 ) ) ;
#5 = DIRECTION ( 'NONE',  ( 4.275831445896959482E-31, 1.000000000000000000, 1.224646799147353454E-16 ) ) ;
#6 = AXIS2_PLACEMENT_3D ( 'NONE', #51, #50, #124 ) ;
#7 = PLANE ( 'NONE',  #135 ) ;
#8 = AXIS2_PLACEMENT_3D ( 'NONE', #162, #18, #194 ) ;
#9 = FACE_OUTER_BOUND ( 'NONE', #2, .T. ) ;
#10 = EDGE_CURVE ( 'NONE', #164, #164, #158, .T. ) ;
#11 = CALENDAR_DATE ( 2023, 1, 2 ) ;
#12 = PRODUCT_DEFINITION_FORMATION_WITH_SPECIFIED_SOURCE ( 'ANY', '', #97, .NOT_KNOWN. ) ;
#13 = CALENDAR_DATE ( 2023, 1, 2 ) ;
#14 = EDGE_LOOP ( 'NONE', ( #157 ) ) ;
#15 = DIRECTION ( 'NONE',  ( 0.000000000000000000, 1.000000000000000000, 0.000000000000000000 ) ) ;
#16 =( NAMED_UNIT ( * ) PLANE_ANGLE_UNIT ( ) SI_UNIT ( $, .RADIAN. ) );
#17 = DIRECTION ( 'NONE',  ( -4.275831445896959482E-31, -1.000000000000000000, -1.224646799147353454E-16 ) ) ;
#18 = DIRECTION ( 'NONE',  ( 0.000000000000000000, 0.000000000000000000, 1.000000000000000000 ) ) ;
#19 = PLANE ( 'NONE',  #103 ) ;
#20 = AXIS2_PLACEMENT_3D ( 'NONE', #34, #191, #175 ) ;
#21 = CARTESIAN_POINT ( 'NONE',  ( 1.710569414459005214E-46, 2.000000000000000000, 0.000000000000000000 ) ) ;
#22 = DIRECTION ( 'NONE',  ( -3.491481338843133355E-15, 1.224646799147353454E-16, -1.000000000000000000 ) ) ;
#23 = SECURITY_CLASSIFICATION_LEVEL ( 'unclassified' ) ;
#24 = ORGANIZATION ( 'UNSPECIFIED', 'UNSPECIFIED', '' ) ;
#25 = PERSON_AND_ORGANIZATION ( #128, #24 ) ;
#26 = PERSON_AND_ORGANIZATION_ROLE ( 'classification_officer' ) ;
#27 = APPROVAL_PERSON_ORGANIZATION ( #150, #114, #83 ) ;
#28 = EDGE_CURVE ( 'NONE', #66, #66, #102, .T. ) ;
#29 = CC_DESIGN_APPROVAL ( #203, ( #169 ) ) ;
#30 = EDGE_LOOP ( 'NONE', ( #71 ) ) ;
#31 = DIRECTION ( 'NONE',  ( 4.275831445896959482E-31, 1.000000000000000000, 1.224646799147353454E-16 ) ) ;
#32 = DIRECTION ( 'NONE',  ( 4.275831445896959482E-31, 1.000000000000000000, 1.224646799147353454E-16 ) ) ;
#33 = CC_DESIGN_PERSON_AND_ORGANIZATION_ASSIGNMENT ( #70, #199, ( #81 ) ) ;
#34 = CARTESIAN_POINT ( 'NONE',  ( 1.452456236958743728E-13, -5.094530684452991472E-15, 41.60000000000000853 ) ) ;
#35 = CLOSED_SHELL ( 'NONE', ( #47, #132, #193, #65 ) ) ;
#36 = CARTESIAN_POINT ( 'NONE',  ( 0.000000000000000000, 0.000000000000000000, 0.000000000000000000 ) ) ;
#37 = EDGE_LOOP ( 'NONE', ( #62 ) ) ;
#38 = DIRECTION ( 'NONE',  ( -3.491481338843133355E-15, 1.224646799147353454E-16, -1.000000000000000000 ) ) ;
#39 = DESIGN_CONTEXT ( 'detailed design', #94, 'design' ) ;
#40 = CC_DESIGN_SECURITY_CLASSIFICATION ( #169, ( #12 ) ) ;
#41 = APPROVAL_DATE_TIME ( #201, #203 ) ;
#42 = PERSON_AND_ORGANIZATION ( #128, #24 ) ;
#43 = DATE_TIME_ROLE ( 'classification_date' ) ;
#44 = AXIS2_PLACEMENT_3D ( 'NONE', #78, #142, #63 ) ;
#45 = APPROVAL_STATUS ( 'not_yet_approved' ) ;
#46 = APPLICATION_PROTOCOL_DEFINITION ( 'international standard', 'config_control_design', 1994, #94 ) ;
#47 = ADVANCED_FACE ( 'NONE', ( #119 ), #189, .F. ) ;
#48 = LOCAL_TIME ( 16, 37, 58.00000000000000000, #100 ) ;
#49 = ORIENTED_EDGE ( 'NONE', *, *, #10, .T. ) ;
#50 = DIRECTION ( 'NONE',  ( -3.491481338843133355E-15, 1.224646799147353454E-16, -1.000000000000000000 ) ) ;
#51 = CARTESIAN_POINT ( 'NONE',  ( -8.551662891793917213E-31, 2.999519565323716310E-32, -2.449293598294706907E-16 ) ) ;
#52 = ORIENTED_EDGE ( 'NONE', *, *, #10, .F. ) ;
#53 = CARTESIAN_POINT ( 'NONE',  ( 1.396592535537253342E-14, 1.999999999999999556, 4.000000000000000000 ) ) ;
#54 = CARTESIAN_POINT ( 'NONE',  ( 1.396592535537253342E-14, 1.499759782661857608E-32, 4.000000000000000000 ) ) ;
#55 = LOCAL_TIME ( 16, 37, 58.00000000000000000, #113 ) ;
#56 = AXIS2_PLACEMENT_3D ( 'NONE', #141, #190, #15 ) ;
#57 = CALENDAR_DATE ( 2023, 1, 2 ) ;
#58 = COORDINATED_UNIVERSAL_TIME_OFFSET ( 1, 0, .AHEAD. ) ;
#59 = CC_DESIGN_DATE_AND_TIME_ASSIGNMENT ( #136, #187, ( #81 ) ) ;
#60 = CONICAL_SURFACE ( 'NONE', #20, 2.000000000000000444, 0.7853981633974516097 ) ;
#61 = DIRECTION ( 'NONE',  ( 0.000000000000000000, 1.000000000000000000, 0.000000000000000000 ) ) ;
#62 = ORIENTED_EDGE ( 'NONE', *, *, #198, .F. ) ;
#63 = DIRECTION ( 'NONE',  ( 0.000000000000000000, 1.000000000000000000, 0.000000000000000000 ) ) ;
#64 = FACE_OUTER_BOUND ( 'NONE', #14, .T. ) ;
#65 = ADVANCED_FACE ( 'NONE', ( #98 ), #166, .F. ) ;
#66 = VERTEX_POINT ( 'NONE', #144 ) ;
#67 = FACE_OUTER_BOUND ( 'NONE', #96, .T. ) ;
#68 = APPROVAL ( #45, 'UNSPECIFIED' ) ;
#69 = DATE_AND_TIME ( #11, #73 ) ;
#70 = PERSON_AND_ORGANIZATION ( #128, #24 ) ;
#71 = ORIENTED_EDGE ( 'NONE', *, *, #198, .T. ) ;
#72 = CARTESIAN_POINT ( 'NONE',  ( 1.396592535537253342E-14, 1.999999999999999556, 4.000000000000000000 ) ) ;
#73 = LOCAL_TIME ( 16, 37, 58.00000000000000000, #185 ) ;
#74 = DIRECTION ( 'NONE',  ( -3.491481338843133355E-15, 1.224646799147353454E-16, -1.000000000000000000 ) ) ;
#75 = DIRECTION ( 'NONE',  ( 3.491481338843133355E-15, -1.224646799147353454E-16, 1.000000000000000000 ) ) ;
#76 = ADVANCED_BREP_SHAPE_REPRESENTATION ( '977836', ( #122, #196, #8 ), #115 ) ;
#77 = FACE_OUTER_BOUND ( 'NONE', #30, .T. ) ;
#78 = CARTESIAN_POINT ( 'NONE',  ( 1.396592535537253342E-14, -4.898587196589413815E-16, 4.000000000000000000 ) ) ;
#79 = VERTEX_POINT ( 'NONE', #53 ) ;
#80 = DIRECTION ( 'NONE',  ( 4.275831445896959482E-31, 1.000000000000000000, 1.224646799147353454E-16 ) ) ;
#81 = PRODUCT_DEFINITION ( 'UNKNOWN', '', #12, #39 ) ;
#82 = CLOSED_SHELL ( 'NONE', ( #163, #140, #149 ) ) ;
#83 = APPROVAL_ROLE ( '' ) ;
#84 = CIRCLE ( 'NONE', #44, 2.000000000000000000 ) ;
#85 = CALENDAR_DATE ( 2023, 1, 2 ) ;
#86 = APPROVAL_DATE_TIME ( #184, #114 ) ;
#87 = COORDINATED_UNIVERSAL_TIME_OFFSET ( 1, 0, .AHEAD. ) ;
#88 = AXIS2_PLACEMENT_3D ( 'NONE', #92, #155, #31 ) ;
#89 = EDGE_LOOP ( 'NONE', ( #90 ) ) ;
#90 = ORIENTED_EDGE ( 'NONE', *, *, #28, .T. ) ;
#91 = EDGE_LOOP ( 'NONE', ( #52 ) ) ;
#92 = CARTESIAN_POINT ( 'NONE',  ( 0.000000000000000000, 0.000000000000000000, 0.000000000000000000 ) ) ;
#93 = CARTESIAN_POINT ( 'NONE',  ( 1.452456236958743728E-13, 1.999999999999995337, 41.60000000000000853 ) ) ;
#94 = APPLICATION_CONTEXT ( 'configuration controlled 3d designs of mechanical parts and assemblies' ) ;
#95 = CC_DESIGN_PERSON_AND_ORGANIZATION_ASSIGNMENT ( #145, #101, ( #97 ) ) ;
#96 = EDGE_LOOP ( 'NONE', ( #49 ) ) ;
#97 = PRODUCT ( '977836', '977836', '', ( #148 ) ) ;
#98 = FACE_OUTER_BOUND ( 'NONE', #154, .T. ) ;
#99 = APPROVAL_DATE_TIME ( #170, #68 ) ;
#100 = COORDINATED_UNIVERSAL_TIME_OFFSET ( 1, 0, .AHEAD. ) ;
#101 = PERSON_AND_ORGANIZATION_ROLE ( 'design_owner' ) ;
#102 = CIRCLE ( 'NONE', #177, 1.600000000000000311 ) ;
#103 = AXIS2_PLACEMENT_3D ( 'NONE', #104, #118, #5 ) ;
#104 = CARTESIAN_POINT ( 'NONE',  ( -4.275831445896958607E-31, 1.499759782661858155E-32, -1.224646799147353454E-16 ) ) ;
#105 = CARTESIAN_POINT ( 'NONE',  ( 1.396592535537253342E-14, 1.499759782661857608E-32, 4.000000000000000000 ) ) ;
#106 = FACE_OUTER_BOUND ( 'NONE', #111, .T. ) ;
#107 =( NAMED_UNIT ( * ) SI_UNIT ( $, .STERADIAN. ) SOLID_ANGLE_UNIT ( ) );
#108 = FACE_OUTER_BOUND ( 'NONE', #91, .T. ) ;
#109 = PRODUCT_RELATED_PRODUCT_CATEGORY ( 'detail', '', ( #97 ) ) ;
#110 = AXIS2_PLACEMENT_3D ( 'NONE', #147, #22, #80 ) ;
#111 = EDGE_LOOP ( 'NONE', ( #161 ) ) ;
#112 = LOCAL_TIME ( 16, 37, 58.00000000000000000, #87 ) ;
#113 = COORDINATED_UNIVERSAL_TIME_OFFSET ( 1, 0, .AHEAD. ) ;
#114 = APPROVAL ( #202, 'UNSPECIFIED' ) ;
#115 =( GEOMETRIC_REPRESENTATION_CONTEXT ( 3 ) GLOBAL_UNCERTAINTY_ASSIGNED_CONTEXT ( ( #152 ) ) GLOBAL_UNIT_ASSIGNED_CONTEXT ( ( #3, #16, #107 ) ) REPRESENTATION_CONTEXT ( 'NONE', 'WORKASPACE' ) );
#116 = CC_DESIGN_PERSON_AND_ORGANIZATION_ASSIGNMENT ( #168, #151, ( #12 ) ) ;
#117 = APPROVAL_PERSON_ORGANIZATION ( #25, #203, #200 ) ;
#118 = DIRECTION ( 'NONE',  ( -3.491481338843133355E-15, 1.224646799147353454E-16, -1.000000000000000000 ) ) ;
#119 = FACE_OUTER_BOUND ( 'NONE', #137, .T. ) ;
#120 = PRODUCT_DEFINITION_SHAPE ( 'NONE', 'NONE',  #81 ) ;
#121 = FACE_OUTER_BOUND ( 'NONE', #37, .T. ) ;
#122 = MANIFOLD_SOLID_BREP ( 'Corps-Déplacer/Copier1[1]', #35 ) ;
#123 = VERTEX_POINT ( 'NONE', #21 ) ;
#124 = DIRECTION ( 'NONE',  ( 4.275831445896959482E-31, 1.000000000000000000, 1.224646799147353454E-16 ) ) ;
#125 = CYLINDRICAL_SURFACE ( 'NONE', #88, 2.000000000000000000 ) ;
#126 = AXIS2_PLACEMENT_3D ( 'NONE', #183, #74, #139 ) ;
#127 = ORIENTED_EDGE ( 'NONE', *, *, #173, .T. ) ;
#128 = PERSON ( 'UNSPECIFIED', 'UNSPECIFIED', 'UNSPECIFIED', ('UNSPECIFIED'), ('UNSPECIFIED'), ('UNSPECIFIED') ) ;
#129 = CIRCLE ( 'NONE', #56, 2.000000000000000000 ) ;
#130 = APPROVAL_ROLE ( '' ) ;
#131 = CALENDAR_DATE ( 2023, 1, 2 ) ;
#132 = ADVANCED_FACE ( 'NONE', ( #67, #9 ), #188, .T. ) ;
#133 = PERSON_AND_ORGANIZATION ( #128, #24 ) ;
#134 = APPROVAL_STATUS ( 'not_yet_approved' ) ;
#135 = AXIS2_PLACEMENT_3D ( 'NONE', #54, #75, #160 ) ;
#136 = DATE_AND_TIME ( #85, #55 ) ;
#137 = EDGE_LOOP ( 'NONE', ( #127 ) ) ;
#138 = CC_DESIGN_APPROVAL ( #68, ( #81 ) ) ;
#139 = DIRECTION ( 'NONE',  ( 0.000000000000000000, 1.000000000000000000, 0.000000000000000000 ) ) ;
#140 = ADVANCED_FACE ( 'NONE', ( #77, #64 ), #125, .T. ) ;
#141 = CARTESIAN_POINT ( 'NONE',  ( 1.396592535537253342E-14, -4.898587196589413815E-16, 4.000000000000000000 ) ) ;
#142 = DIRECTION ( 'NONE',  ( -3.491481338843133355E-15, 1.224646799147353454E-16, -1.000000000000000000 ) ) ;
#143 = CC_DESIGN_DATE_AND_TIME_ASSIGNMENT ( #69, #43, ( #169 ) ) ;
#144 = CARTESIAN_POINT ( 'NONE',  ( 1.466422162314116009E-13, 1.599999999999994982, 42.00000000000000000 ) ) ;
#145 = PERSON_AND_ORGANIZATION ( #128, #24 ) ;
#146 = AXIS2_PLACEMENT_3D ( 'NONE', #36, #179, #32 ) ;
#147 = CARTESIAN_POINT ( 'NONE',  ( 1.466422162314116009E-13, 1.199807826129478970E-32, 42.00000000000000000 ) ) ;
#148 = MECHANICAL_CONTEXT ( 'NONE', #171, 'mechanical' ) ;
#149 = ADVANCED_FACE ( 'NONE', ( #121 ), #7, .T. ) ;
#150 = PERSON_AND_ORGANIZATION ( #128, #24 ) ;
#151 = PERSON_AND_ORGANIZATION_ROLE ( 'design_supplier' ) ;
#152 = UNCERTAINTY_MEASURE_WITH_UNIT (LENGTH_MEASURE( 1.000000000000000082E-05 ), #3, 'distance_accuracy_value', 'NONE');
#153 = PERSON_AND_ORGANIZATION ( #128, #24 ) ;
#154 = EDGE_LOOP ( 'NONE', ( #174 ) ) ;
#155 = DIRECTION ( 'NONE',  ( -3.491481338843133355E-15, 1.224646799147353454E-16, -1.000000000000000000 ) ) ;
#156 = EDGE_CURVE ( 'NONE', #123, #123, #182, .T. ) ;
#157 = ORIENTED_EDGE ( 'NONE', *, *, #156, .F. ) ;
#158 = CIRCLE ( 'NONE', #126, 2.000000000000000444 ) ;
#159 = APPROVAL_PERSON_ORGANIZATION ( #153, #68, #130 ) ;
#160 = DIRECTION ( 'NONE',  ( -4.275831445896959482E-31, -1.000000000000000000, -1.224646799147353454E-16 ) ) ;
#161 = ORIENTED_EDGE ( 'NONE', *, *, #156, .T. ) ;
#162 = CARTESIAN_POINT ( 'NONE',  ( 0.000000000000000000, 0.000000000000000000, 0.000000000000000000 ) ) ;
#163 = ADVANCED_FACE ( 'NONE', ( #106 ), #19, .T. ) ;
#164 = VERTEX_POINT ( 'NONE', #93 ) ;
#165 = LOCAL_TIME ( 16, 37, 58.00000000000000000, #58 ) ;
#166 = PLANE ( 'NONE',  #110 ) ;
#167 = CC_DESIGN_APPROVAL ( #114, ( #12 ) ) ;
#168 = PERSON_AND_ORGANIZATION ( #128, #24 ) ;
#169 = SECURITY_CLASSIFICATION ( '', '', #23 ) ;
#170 = DATE_AND_TIME ( #13, #112 ) ;
#171 = APPLICATION_CONTEXT ( 'configuration controlled 3d designs of mechanical parts and assemblies' ) ;
#172 = PERSON_AND_ORGANIZATION_ROLE ( 'creator' ) ;
#173 = EDGE_CURVE ( 'NONE', #192, #192, #84, .T. ) ;
#174 = ORIENTED_EDGE ( 'NONE', *, *, #28, .F. ) ;
#175 = DIRECTION ( 'NONE',  ( 0.000000000000000000, 1.000000000000000000, 0.000000000000000000 ) ) ;
#176 = DIRECTION ( 'NONE',  ( 3.491481338843133355E-15, -1.224646799147353454E-16, 1.000000000000000000 ) ) ;
#177 = AXIS2_PLACEMENT_3D ( 'NONE', #4, #38, #61 ) ;
#178 = APPLICATION_PROTOCOL_DEFINITION ( 'international standard', 'config_control_design', 1994, #171 ) ;
#179 = DIRECTION ( 'NONE',  ( -3.491481338843133355E-15, 1.224646799147353454E-16, -1.000000000000000000 ) ) ;
#180 = CC_DESIGN_PERSON_AND_ORGANIZATION_ASSIGNMENT ( #133, #26, ( #169 ) ) ;
#181 = FACE_BOUND ( 'NONE', #89, .T. ) ;
#182 = CIRCLE ( 'NONE', #6, 2.000000000000000000 ) ;
#183 = CARTESIAN_POINT ( 'NONE',  ( 1.452456236958743728E-13, -5.094530684452991472E-15, 41.60000000000000853 ) ) ;
#184 = DATE_AND_TIME ( #57, #48 ) ;
#185 = COORDINATED_UNIVERSAL_TIME_OFFSET ( 1, 0, .AHEAD. ) ;
#186 = CC_DESIGN_PERSON_AND_ORGANIZATION_ASSIGNMENT ( #42, #172, ( #12 ) ) ;
#187 = DATE_TIME_ROLE ( 'creation_date' ) ;
#188 = CYLINDRICAL_SURFACE ( 'NONE', #146, 2.000000000000000000 ) ;
#189 = PLANE ( 'NONE',  #1 ) ;
#190 = DIRECTION ( 'NONE',  ( -3.491481338843133355E-15, 1.224646799147353454E-16, -1.000000000000000000 ) ) ;
#191 = DIRECTION ( 'NONE',  ( -3.491481338843133355E-15, 1.224646799147353454E-16, -1.000000000000000000 ) ) ;
#192 = VERTEX_POINT ( 'NONE', #72 ) ;
#193 = ADVANCED_FACE ( 'NONE', ( #181, #108 ), #60, .T. ) ;
#194 = DIRECTION ( 'NONE',  ( 1.000000000000000000, 0.000000000000000000, 0.000000000000000000 ) ) ;
#195 = ORIENTED_EDGE ( 'NONE', *, *, #173, .F. ) ;
#196 = MANIFOLD_SOLID_BREP ( 'Corps-Déplacer/Copier1[2]', #82 ) ;
#197 = SHAPE_DEFINITION_REPRESENTATION ( #120, #76 ) ;
#198 = EDGE_CURVE ( 'NONE', #79, #79, #129, .T. ) ;
#199 = PERSON_AND_ORGANIZATION_ROLE ( 'creator' ) ;
#200 = APPROVAL_ROLE ( '' ) ;
#201 = DATE_AND_TIME ( #131, #165 ) ;
#202 = APPROVAL_STATUS ( 'not_yet_approved' ) ;
#203 = APPROVAL ( #134, 'UNSPECIFIED' ) ;
ENDSEC;
END-ISO-10303-21;
