ISO-10303-21;
HEADER;
FILE_DESCRIPTION (( 'STEP AP203' ),
    '1' );
FILE_NAME ('977835.step',
    '2023-02-01T15:37:57',
    ( '' ),
    ( '' ),
    'SwSTEP 2.0',
    'SolidWorks 2019',
    '' );
FILE_SCHEMA (( 'CONFIG_CONTROL_DESIGN' ));
ENDSEC;

DATA;
#1 = COORDINATED_UNIVERSAL_TIME_OFFSET ( 1, 0, .AHEAD. ) ;
#2 = DIRECTION ( 'NONE',  ( 0.000000000000000000, 0.000000000000000000, 1.000000000000000000 ) ) ;
#3 = ADVANCED_FACE ( 'NONE', ( #129, #96 ), #191, .T. ) ;
#4 = ADVANCED_FACE ( 'NONE', ( #49, #81 ), #144, .T. ) ;
#5 = PRODUCT ( '977835', '977835', '', ( #155 ) ) ;
#6 = ADVANCED_BREP_SHAPE_REPRESENTATION ( '977835', ( #119, #126, #37 ), #168 ) ;
#7 = SECURITY_CLASSIFICATION ( '', '', #107 ) ;
#8 = ORIENTED_EDGE ( 'NONE', *, *, #186, .F. ) ;
#9 = EDGE_LOOP ( 'NONE', ( #161 ) ) ;
#10 = DIRECTION ( 'NONE',  ( -3.491481338843133355E-15, 1.224646799147353207E-16, -1.000000000000000000 ) ) ;
#11 = DIRECTION ( 'NONE',  ( -3.491481338843133355E-15, 1.224646799147353207E-16, -1.000000000000000000 ) ) ;
#12 = DIRECTION ( 'NONE',  ( -3.491481338843133355E-15, 1.224646799147353207E-16, -1.000000000000000000 ) ) ;
#13 = CARTESIAN_POINT ( 'NONE',  ( 1.326762908760390423E-13, 8.998558695971077224E-33, 38.00000000000000000 ) ) ;
#14 = DATE_AND_TIME ( #48, #104 ) ;
#15 = AXIS2_PLACEMENT_3D ( 'NONE', #54, #116, #82 ) ;
#16 = APPROVAL_ROLE ( '' ) ;
#17 = APPLICATION_CONTEXT ( 'configuration controlled 3d designs of mechanical parts and assemblies' ) ;
#18 = DATE_AND_TIME ( #175, #189 ) ;
#19 = SHAPE_DEFINITION_REPRESENTATION ( #170, #6 ) ;
#20 = CC_DESIGN_DATE_AND_TIME_ASSIGNMENT ( #123, #88, ( #86 ) ) ;
#21 = EDGE_CURVE ( 'NONE', #147, #147, #173, .T. ) ;
#22 = DATE_TIME_ROLE ( 'classification_date' ) ;
#23 = EDGE_LOOP ( 'NONE', ( #179 ) ) ;
#24 = EDGE_LOOP ( 'NONE', ( #174 ) ) ;
#25 = CIRCLE ( 'NONE', #76, 1.500000000000000000 ) ;
#26 = DIRECTION ( 'NONE',  ( -3.491481338843133355E-15, 1.224646799147353207E-16, -1.000000000000000000 ) ) ;
#27 = PLANE ( 'NONE',  #79 ) ;
#28 = DIRECTION ( 'NONE',  ( 0.000000000000000000, 1.000000000000000000, 0.000000000000000000 ) ) ;
#29 = AXIS2_PLACEMENT_3D ( 'NONE', #135, #11, #83 ) ;
#30 = CARTESIAN_POINT ( 'NONE',  ( 1.047444401652940007E-14, 1.499999999999999556, 3.000000000000000000 ) ) ;
#31 = CARTESIAN_POINT ( 'NONE',  ( 1.047444401652940007E-14, 1.124819836996392658E-32, 3.000000000000000000 ) ) ;
#32 = PERSON_AND_ORGANIZATION ( #121, #72 ) ;
#33 = PERSON_AND_ORGANIZATION ( #121, #72 ) ;
#34 = AXIS2_PLACEMENT_3D ( 'NONE', #53, #194, #115 ) ;
#35 = ADVANCED_FACE ( 'NONE', ( #137 ), #202, .T. ) ;
#36 = APPROVAL_DATE_TIME ( #18, #142 ) ;
#37 = AXIS2_PLACEMENT_3D ( 'NONE', #61, #2, #188 ) ;
#38 = CALENDAR_DATE ( 2023, 1, 2 ) ;
#39 =( LENGTH_UNIT ( ) NAMED_UNIT ( * ) SI_UNIT ( .MILLI., .METRE. ) );
#40 = CC_DESIGN_PERSON_AND_ORGANIZATION_ASSIGNMENT ( #33, #159, ( #7 ) ) ;
#41 = DIRECTION ( 'NONE',  ( 0.000000000000000000, 1.000000000000000000, 0.000000000000000000 ) ) ;
#42 = LOCAL_TIME ( 16, 37, 57.00000000000000000, #62 ) ;
#43 = VERTEX_POINT ( 'NONE', #56 ) ;
#44 = APPLICATION_PROTOCOL_DEFINITION ( 'international standard', 'config_control_design', 1994, #110 ) ;
#45 = PERSON_AND_ORGANIZATION_ROLE ( 'design_supplier' ) ;
#46 = AXIS2_PLACEMENT_3D ( 'NONE', #102, #153, #28 ) ;
#47 = APPLICATION_PROTOCOL_DEFINITION ( 'international standard', 'config_control_design', 1994, #17 ) ;
#48 = CALENDAR_DATE ( 2023, 1, 2 ) ;
#49 = FACE_OUTER_BOUND ( 'NONE', #128, .T. ) ;
#50 = PERSON_AND_ORGANIZATION ( #121, #72 ) ;
#51 = ORIENTED_EDGE ( 'NONE', *, *, #149, .T. ) ;
#52 = APPROVAL ( #95, 'UNSPECIFIED' ) ;
#53 = CARTESIAN_POINT ( 'NONE',  ( 0.000000000000000000, 0.000000000000000000, 0.000000000000000000 ) ) ;
#54 = CARTESIAN_POINT ( 'NONE',  ( 1.047444401652940007E-14, 1.124819836996392658E-32, 3.000000000000000000 ) ) ;
#55 = AXIS2_PLACEMENT_3D ( 'NONE', #146, #12, #185 ) ;
#56 = CARTESIAN_POINT ( 'NONE',  ( 1.326762908760390423E-13, 1.199999999999995293, 38.00000000000000000 ) ) ;
#57 = DIRECTION ( 'NONE',  ( -3.491481338843133355E-15, 1.224646799147353207E-16, -1.000000000000000000 ) ) ;
#58 = APPROVAL ( #90, 'UNSPECIFIED' ) ;
#59 = CC_DESIGN_SECURITY_CLASSIFICATION ( #7, ( #141 ) ) ;
#60 = DIRECTION ( 'NONE',  ( 4.275831445896958607E-31, 1.000000000000000000, 1.224646799147353207E-16 ) ) ;
#61 = CARTESIAN_POINT ( 'NONE',  ( 0.000000000000000000, 0.000000000000000000, 0.000000000000000000 ) ) ;
#62 = COORDINATED_UNIVERSAL_TIME_OFFSET ( 1, 0, .AHEAD. ) ;
#63 = APPROVAL_STATUS ( 'not_yet_approved' ) ;
#64 = CC_DESIGN_APPROVAL ( #52, ( #86 ) ) ;
#65 = CLOSED_SHELL ( 'NONE', ( #171, #4, #113, #74 ) ) ;
#66 = AXIS2_PLACEMENT_3D ( 'NONE', #163, #164, #41 ) ;
#67 = ORIENTED_EDGE ( 'NONE', *, *, #21, .F. ) ;
#68 = CC_DESIGN_PERSON_AND_ORGANIZATION_ASSIGNMENT ( #203, #45, ( #141 ) ) ;
#69 = APPROVAL_PERSON_ORGANIZATION ( #122, #58, #77 ) ;
#70 = EDGE_LOOP ( 'NONE', ( #67 ) ) ;
#71 = CARTESIAN_POINT ( 'NONE',  ( 0.000000000000000000, 1.500000000000000000, 0.000000000000000000 ) ) ;
#72 = ORGANIZATION ( 'UNSPECIFIED', 'UNSPECIFIED', '' ) ;
#73 = DIRECTION ( 'NONE',  ( -4.275831445896958607E-31, -1.000000000000000000, -1.224646799147353207E-16 ) ) ;
#74 = ADVANCED_FACE ( 'NONE', ( #197 ), #27, .F. ) ;
#75 = PLANE ( 'NONE',  #145 ) ;
#76 = AXIS2_PLACEMENT_3D ( 'NONE', #136, #198, #133 ) ;
#77 = APPROVAL_ROLE ( '' ) ;
#78 = CALENDAR_DATE ( 2023, 1, 2 ) ;
#79 = AXIS2_PLACEMENT_3D ( 'NONE', #13, #10, #60 ) ;
#80 = DATE_AND_TIME ( #38, #84 ) ;
#81 = FACE_OUTER_BOUND ( 'NONE', #196, .T. ) ;
#82 = DIRECTION ( 'NONE',  ( -4.275831445896958607E-31, -1.000000000000000000, -1.224646799147353207E-16 ) ) ;
#83 = DIRECTION ( 'NONE',  ( 0.000000000000000000, 1.000000000000000000, 0.000000000000000000 ) ) ;
#84 = LOCAL_TIME ( 16, 37, 57.00000000000000000, #176 ) ;
#85 = CARTESIAN_POINT ( 'NONE',  ( 1.316288464743861212E-13, 1.499999999999995337, 37.69999999999999574 ) ) ;
#86 = PRODUCT_DEFINITION ( 'UNKNOWN', '', #141, #193 ) ;
#87 = FACE_OUTER_BOUND ( 'NONE', #23, .T. ) ;
#88 = DATE_TIME_ROLE ( 'creation_date' ) ;
#89 = CC_DESIGN_PERSON_AND_ORGANIZATION_ASSIGNMENT ( #154, #111, ( #5 ) ) ;
#90 = APPROVAL_STATUS ( 'not_yet_approved' ) ;
#91 = APPROVAL_DATE_TIME ( #14, #52 ) ;
#92 = CIRCLE ( 'NONE', #148, 1.199999999999999956 ) ;
#93 = ADVANCED_FACE ( 'NONE', ( #134 ), #75, .T. ) ;
#94 = DIRECTION ( 'NONE',  ( 4.275831445896959482E-31, 1.000000000000000000, 1.224646799147353207E-16 ) ) ;
#95 = APPROVAL_STATUS ( 'not_yet_approved' ) ;
#96 = FACE_OUTER_BOUND ( 'NONE', #70, .T. ) ;
#97 = CLOSED_SHELL ( 'NONE', ( #93, #3, #35 ) ) ;
#98 = ORIENTED_EDGE ( 'NONE', *, *, #186, .T. ) ;
#99 = CARTESIAN_POINT ( 'NONE',  ( 0.000000000000000000, 0.000000000000000000, 0.000000000000000000 ) ) ;
#100 = CIRCLE ( 'NONE', #66, 1.500000000000000000 ) ;
#101 =( NAMED_UNIT ( * ) SI_UNIT ( $, .STERADIAN. ) SOLID_ANGLE_UNIT ( ) );
#102 = CARTESIAN_POINT ( 'NONE',  ( 1.316288464743861212E-13, -4.616918432785521081E-15, 37.69999999999999574 ) ) ;
#103 = CARTESIAN_POINT ( 'NONE',  ( -3.206873584422719393E-31, 1.124819836996393206E-32, -9.184850993605149670E-17 ) ) ;
#104 = LOCAL_TIME ( 16, 37, 57.00000000000000000, #1 ) ;
#105 = DIRECTION ( 'NONE',  ( 3.491481338843133355E-15, -1.224646799147353207E-16, 1.000000000000000000 ) ) ;
#106 = VERTEX_POINT ( 'NONE', #85 ) ;
#107 = SECURITY_CLASSIFICATION_LEVEL ( 'unclassified' ) ;
#108 = PERSON_AND_ORGANIZATION_ROLE ( 'creator' ) ;
#109 = CC_DESIGN_APPROVAL ( #58, ( #7 ) ) ;
#110 = APPLICATION_CONTEXT ( 'configuration controlled 3d designs of mechanical parts and assemblies' ) ;
#111 = PERSON_AND_ORGANIZATION_ROLE ( 'design_owner' ) ;
#112 = EDGE_LOOP ( 'NONE', ( #143 ) ) ;
#113 = ADVANCED_FACE ( 'NONE', ( #166, #120 ), #156, .T. ) ;
#114 = EDGE_CURVE ( 'NONE', #43, #43, #92, .T. ) ;
#115 = DIRECTION ( 'NONE',  ( 4.275831445896959482E-31, 1.000000000000000000, 1.224646799147353207E-16 ) ) ;
#116 = DIRECTION ( 'NONE',  ( 3.491481338843133355E-15, -1.224646799147353207E-16, 1.000000000000000000 ) ) ;
#117 = DIRECTION ( 'NONE',  ( -3.491481338843133355E-15, 1.224646799147353207E-16, -1.000000000000000000 ) ) ;
#118 = CARTESIAN_POINT ( 'NONE',  ( 1.047444401652940007E-14, 1.499999999999999556, 3.000000000000000000 ) ) ;
#119 = MANIFOLD_SOLID_BREP ( 'Corps-Déplacer/Copier1[1]', #65 ) ;
#120 = FACE_OUTER_BOUND ( 'NONE', #195, .T. ) ;
#121 = PERSON ( 'UNSPECIFIED', 'UNSPECIFIED', 'UNSPECIFIED', ('UNSPECIFIED'), ('UNSPECIFIED'), ('UNSPECIFIED') ) ;
#122 = PERSON_AND_ORGANIZATION ( #121, #72 ) ;
#123 = DATE_AND_TIME ( #192, #42 ) ;
#124 = CIRCLE ( 'NONE', #29, 1.499999999999999778 ) ;
#125 = COORDINATED_UNIVERSAL_TIME_OFFSET ( 1, 0, .AHEAD. ) ;
#126 = MANIFOLD_SOLID_BREP ( 'Corps-Déplacer/Copier1[2]', #97 ) ;
#127 = AXIS2_PLACEMENT_3D ( 'NONE', #31, #105, #73 ) ;
#128 = EDGE_LOOP ( 'NONE', ( #98 ) ) ;
#129 = FACE_OUTER_BOUND ( 'NONE', #132, .T. ) ;
#130 = APPROVAL_ROLE ( '' ) ;
#131 = APPROVAL_PERSON_ORGANIZATION ( #139, #52, #130 ) ;
#132 = EDGE_LOOP ( 'NONE', ( #51 ) ) ;
#133 = DIRECTION ( 'NONE',  ( 0.000000000000000000, 1.000000000000000000, 0.000000000000000000 ) ) ;
#134 = FACE_OUTER_BOUND ( 'NONE', #24, .T. ) ;
#135 = CARTESIAN_POINT ( 'NONE',  ( 1.316288464743861212E-13, -4.616918432785521081E-15, 37.69999999999999574 ) ) ;
#136 = CARTESIAN_POINT ( 'NONE',  ( 1.047444401652940007E-14, -3.673940397442059868E-16, 3.000000000000000000 ) ) ;
#137 = FACE_OUTER_BOUND ( 'NONE', #162, .T. ) ;
#138 = LOCAL_TIME ( 16, 37, 57.00000000000000000, #125 ) ;
#139 = PERSON_AND_ORGANIZATION ( #121, #72 ) ;
#140 = APPROVAL_DATE_TIME ( #190, #58 ) ;
#141 = PRODUCT_DEFINITION_FORMATION_WITH_SPECIFIED_SOURCE ( 'ANY', '', #5, .NOT_KNOWN. ) ;
#142 = APPROVAL ( #63, 'UNSPECIFIED' ) ;
#143 = ORIENTED_EDGE ( 'NONE', *, *, #114, .F. ) ;
#144 = CYLINDRICAL_SURFACE ( 'NONE', #199, 1.500000000000000000 ) ;
#145 = AXIS2_PLACEMENT_3D ( 'NONE', #103, #117, #151 ) ;
#146 = CARTESIAN_POINT ( 'NONE',  ( -6.413747168845438786E-31, 2.249639673992786412E-32, -1.836970198721029934E-16 ) ) ;
#147 = VERTEX_POINT ( 'NONE', #71 ) ;
#148 = AXIS2_PLACEMENT_3D ( 'NONE', #180, #57, #183 ) ;
#149 = EDGE_CURVE ( 'NONE', #165, #165, #100, .T. ) ;
#150 =( NAMED_UNIT ( * ) PLANE_ANGLE_UNIT ( ) SI_UNIT ( $, .RADIAN. ) );
#151 = DIRECTION ( 'NONE',  ( 4.275831445896958607E-31, 1.000000000000000000, 1.224646799147353207E-16 ) ) ;
#152 = CC_DESIGN_PERSON_AND_ORGANIZATION_ASSIGNMENT ( #32, #108, ( #86 ) ) ;
#153 = DIRECTION ( 'NONE',  ( -3.491481338843133355E-15, 1.224646799147353207E-16, -1.000000000000000000 ) ) ;
#154 = PERSON_AND_ORGANIZATION ( #121, #72 ) ;
#155 = MECHANICAL_CONTEXT ( 'NONE', #110, 'mechanical' ) ;
#156 = CONICAL_SURFACE ( 'NONE', #46, 1.499999999999999778, 0.7853981633974453924 ) ;
#157 = PRODUCT_RELATED_PRODUCT_CATEGORY ( 'detail', '', ( #5 ) ) ;
#158 = ORIENTED_EDGE ( 'NONE', *, *, #149, .F. ) ;
#159 = PERSON_AND_ORGANIZATION_ROLE ( 'classification_officer' ) ;
#160 = CC_DESIGN_APPROVAL ( #142, ( #141 ) ) ;
#161 = ORIENTED_EDGE ( 'NONE', *, *, #114, .T. ) ;
#162 = EDGE_LOOP ( 'NONE', ( #158 ) ) ;
#163 = CARTESIAN_POINT ( 'NONE',  ( 1.047444401652940007E-14, -3.673940397442059868E-16, 3.000000000000000000 ) ) ;
#164 = DIRECTION ( 'NONE',  ( -3.491481338843133355E-15, 1.224646799147353207E-16, -1.000000000000000000 ) ) ;
#165 = VERTEX_POINT ( 'NONE', #30 ) ;
#166 = FACE_BOUND ( 'NONE', #9, .T. ) ;
#167 = COORDINATED_UNIVERSAL_TIME_OFFSET ( 1, 0, .AHEAD. ) ;
#168 =( GEOMETRIC_REPRESENTATION_CONTEXT ( 3 ) GLOBAL_UNCERTAINTY_ASSIGNED_CONTEXT ( ( #184 ) ) GLOBAL_UNIT_ASSIGNED_CONTEXT ( ( #39, #150, #101 ) ) REPRESENTATION_CONTEXT ( 'NONE', 'WORKASPACE' ) );
#169 = PERSON_AND_ORGANIZATION_ROLE ( 'creator' ) ;
#170 = PRODUCT_DEFINITION_SHAPE ( 'NONE', 'NONE',  #86 ) ;
#171 = ADVANCED_FACE ( 'NONE', ( #87 ), #181, .F. ) ;
#172 = CC_DESIGN_DATE_AND_TIME_ASSIGNMENT ( #80, #22, ( #7 ) ) ;
#173 = CIRCLE ( 'NONE', #55, 1.500000000000000000 ) ;
#174 = ORIENTED_EDGE ( 'NONE', *, *, #21, .T. ) ;
#175 = CALENDAR_DATE ( 2023, 1, 2 ) ;
#176 = COORDINATED_UNIVERSAL_TIME_OFFSET ( 1, 0, .AHEAD. ) ;
#177 = APPROVAL_PERSON_ORGANIZATION ( #50, #142, #16 ) ;
#178 = ORIENTED_EDGE ( 'NONE', *, *, #201, .F. ) ;
#179 = ORIENTED_EDGE ( 'NONE', *, *, #201, .T. ) ;
#180 = CARTESIAN_POINT ( 'NONE',  ( 1.326762908760390423E-13, -4.653657836759941941E-15, 38.00000000000000000 ) ) ;
#181 = PLANE ( 'NONE',  #15 ) ;
#182 = CC_DESIGN_PERSON_AND_ORGANIZATION_ASSIGNMENT ( #187, #169, ( #141 ) ) ;
#183 = DIRECTION ( 'NONE',  ( 0.000000000000000000, 1.000000000000000000, 0.000000000000000000 ) ) ;
#184 = UNCERTAINTY_MEASURE_WITH_UNIT (LENGTH_MEASURE( 1.000000000000000082E-05 ), #39, 'distance_accuracy_value', 'NONE');
#185 = DIRECTION ( 'NONE',  ( 4.275831445896959482E-31, 1.000000000000000000, 1.224646799147353207E-16 ) ) ;
#186 = EDGE_CURVE ( 'NONE', #106, #106, #124, .T. ) ;
#187 = PERSON_AND_ORGANIZATION ( #121, #72 ) ;
#188 = DIRECTION ( 'NONE',  ( 1.000000000000000000, 0.000000000000000000, 0.000000000000000000 ) ) ;
#189 = LOCAL_TIME ( 16, 37, 57.00000000000000000, #167 ) ;
#190 = DATE_AND_TIME ( #78, #138 ) ;
#191 = CYLINDRICAL_SURFACE ( 'NONE', #34, 1.500000000000000000 ) ;
#192 = CALENDAR_DATE ( 2023, 1, 2 ) ;
#193 = DESIGN_CONTEXT ( 'detailed design', #17, 'design' ) ;
#194 = DIRECTION ( 'NONE',  ( -3.491481338843133355E-15, 1.224646799147353207E-16, -1.000000000000000000 ) ) ;
#195 = EDGE_LOOP ( 'NONE', ( #8 ) ) ;
#196 = EDGE_LOOP ( 'NONE', ( #178 ) ) ;
#197 = FACE_OUTER_BOUND ( 'NONE', #112, .T. ) ;
#198 = DIRECTION ( 'NONE',  ( -3.491481338843133355E-15, 1.224646799147353207E-16, -1.000000000000000000 ) ) ;
#199 = AXIS2_PLACEMENT_3D ( 'NONE', #99, #26, #94 ) ;
#200 = VERTEX_POINT ( 'NONE', #118 ) ;
#201 = EDGE_CURVE ( 'NONE', #200, #200, #25, .T. ) ;
#202 = PLANE ( 'NONE',  #127 ) ;
#203 = PERSON_AND_ORGANIZATION ( #121, #72 ) ;
ENDSEC;
END-ISO-10303-21;
