ISO-10303-21;
HEADER;
FILE_DESCRIPTION (( 'STEP AP203' ),
    '1' );
FILE_NAME ('977834.step',
    '2023-02-01T15:37:57',
    ( '' ),
    ( '' ),
    'SwSTEP 2.0',
    'SolidWorks 2019',
    '' );
FILE_SCHEMA (( 'CONFIG_CONTROL_DESIGN' ));
ENDSEC;

DATA;
#1 = DIRECTION ( 'NONE',  ( 1.000000000000000000, 0.000000000000000000, -3.491481338843133355E-15 ) ) ;
#2 = DIRECTION ( 'NONE',  ( 3.491481338843133355E-15, -1.224646799147353207E-16, 1.000000000000000000 ) ) ;
#3 = CARTESIAN_POINT ( 'NONE',  ( 1.316288464743861212E-13, 1.499999999999995337, 37.69999999999999574 ) ) ;
#4 = AXIS2_PLACEMENT_3D ( 'NONE', #98, #119, #204 ) ;
#5 = ADVANCED_FACE ( 'NONE', ( #63, #112 ), #130, .T. ) ;
#6 = FACE_OUTER_BOUND ( 'NONE', #14, .T. ) ;
#7 = DIRECTION ( 'NONE',  ( 1.000000000000000000, 0.000000000000000000, -3.491481338843133355E-15 ) ) ;
#8 = DATE_AND_TIME ( #156, #55 ) ;
#9 = CARTESIAN_POINT ( 'NONE',  ( 1.250000000000007994, 0.000000000000000000, 2.499999999999994227 ) ) ;
#10 = PERSON_AND_ORGANIZATION ( #38, #201 ) ;
#11 = APPROVAL_DATE_TIME ( #26, #76 ) ;
#12 = UNCERTAINTY_MEASURE_WITH_UNIT (LENGTH_MEASURE( 1.000000000000000082E-05 ), #210, 'distance_accuracy_value', 'NONE');
#13 = EDGE_LOOP ( 'NONE', ( #95 ) ) ;
#14 = EDGE_LOOP ( 'NONE', ( #219 ) ) ;
#15 = EDGE_CURVE ( 'NONE', #165, #165, #27, .T. ) ;
#16 = DIRECTION ( 'NONE',  ( 4.275831445896958607E-31, 1.000000000000000000, 1.224646799147353207E-16 ) ) ;
#17 = LOCAL_TIME ( 16, 37, 57.00000000000000000, #45 ) ;
#18 = CARTESIAN_POINT ( 'NONE',  ( 1.565689684445916233E-14, 0.000000000000000000, 4.484313483298443259 ) ) ;
#19 = DIRECTION ( 'NONE',  ( 1.000000000000000000, 0.000000000000000000, -3.469446951953616161E-15 ) ) ;
#20 = FACE_OUTER_BOUND ( 'NONE', #199, .T. ) ;
#21 = AXIS2_PLACEMENT_3D ( 'NONE', #208, #129, #186 ) ;
#22 = EDGE_CURVE ( 'NONE', #117, #117, #142, .T. ) ;
#23 = CARTESIAN_POINT ( 'NONE',  ( 0.000000000000000000, 0.000000000000000000, 0.000000000000000000 ) ) ;
#24 = APPROVAL ( #136, 'UNSPECIFIED' ) ;
#25 =( NAMED_UNIT ( * ) PLANE_ANGLE_UNIT ( ) SI_UNIT ( $, .RADIAN. ) );
#26 = DATE_AND_TIME ( #92, #64 ) ;
#27 = CIRCLE ( 'NONE', #194, 1.199999999999999956 ) ;
#28 = CALENDAR_DATE ( 2023, 1, 2 ) ;
#29 = MANIFOLD_SOLID_BREP ( 'Corps-Déplacer/Copier1[1]', #185 ) ;
#30 = APPROVAL_STATUS ( 'not_yet_approved' ) ;
#31 =( GEOMETRIC_REPRESENTATION_CONTEXT ( 3 ) GLOBAL_UNCERTAINTY_ASSIGNED_CONTEXT ( ( #12 ) ) GLOBAL_UNIT_ASSIGNED_CONTEXT ( ( #210, #25, #160 ) ) REPRESENTATION_CONTEXT ( 'NONE', 'WORKASPACE' ) );
#32 = ORIENTED_EDGE ( 'NONE', *, *, #15, .T. ) ;
#33 = EDGE_LOOP ( 'NONE', ( #32 ) ) ;
#34 = EDGE_LOOP ( 'NONE', ( #141 ) ) ;
#35 = CARTESIAN_POINT ( 'NONE',  ( 1.326762908760390423E-13, 8.998558695971077224E-33, 38.00000000000000000 ) ) ;
#36 = DIRECTION ( 'NONE',  ( -3.491481338843133355E-15, 1.224646799147353207E-16, -1.000000000000000000 ) ) ;
#37 = CARTESIAN_POINT ( 'NONE',  ( 8.728703347107831810E-15, 1.124819836996392932E-32, 2.499999999999999556 ) ) ;
#38 = PERSON ( 'UNSPECIFIED', 'UNSPECIFIED', 'UNSPECIFIED', ('UNSPECIFIED'), ('UNSPECIFIED'), ('UNSPECIFIED') ) ;
#39 = PLANE ( 'NONE',  #21 ) ;
#40 = FACE_OUTER_BOUND ( 'NONE', #78, .T. ) ;
#41 = CC_DESIGN_PERSON_AND_ORGANIZATION_ASSIGNMENT ( #91, #214, ( #139 ) ) ;
#42 = DATE_AND_TIME ( #105, #161 ) ;
#43 = PERSON_AND_ORGANIZATION ( #38, #201 ) ;
#44 = APPLICATION_PROTOCOL_DEFINITION ( 'international standard', 'config_control_design', 1994, #106 ) ;
#45 = COORDINATED_UNIVERSAL_TIME_OFFSET ( 1, 0, .AHEAD. ) ;
#46 = ORIENTED_EDGE ( 'NONE', *, *, #22, .T. ) ;
#47 = CIRCLE ( 'NONE', #170, 1.249999999999999334 ) ;
#48 = ADVANCED_FACE ( 'NONE', ( #54 ), #155, .T. ) ;
#49 = CYLINDRICAL_SURFACE ( 'NONE', #181, 1.500000000000000000 ) ;
#50 = DIRECTION ( 'NONE',  ( -3.491481338843133355E-15, 1.224646799147353207E-16, -1.000000000000000000 ) ) ;
#51 = PLANE ( 'NONE',  #102 ) ;
#52 = PRODUCT_DEFINITION_SHAPE ( 'NONE', 'NONE',  #83 ) ;
#53 = VERTEX_POINT ( 'NONE', #57 ) ;
#54 = FACE_OUTER_BOUND ( 'NONE', #13, .T. ) ;
#55 = LOCAL_TIME ( 16, 37, 57.00000000000000000, #121 ) ;
#56 = SECURITY_CLASSIFICATION_LEVEL ( 'unclassified' ) ;
#57 = CARTESIAN_POINT ( 'NONE',  ( 1.249999999999999778, 0.000000000000000000, -4.731745713298122139E-15 ) ) ;
#58 = DATE_AND_TIME ( #28, #17 ) ;
#59 = AXIS2_PLACEMENT_3D ( 'NONE', #18, #203, #103 ) ;
#60 = CLOSED_SHELL ( 'NONE', ( #177, #174, #48 ) ) ;
#61 = APPROVAL_DATE_TIME ( #111, #24 ) ;
#62 = EDGE_LOOP ( 'NONE', ( #110 ) ) ;
#63 = FACE_BOUND ( 'NONE', #33, .T. ) ;
#64 = LOCAL_TIME ( 16, 37, 57.00000000000000000, #137 ) ;
#65 = ORIENTED_EDGE ( 'NONE', *, *, #172, .T. ) ;
#66 = CARTESIAN_POINT ( 'NONE',  ( 1.326762908760390423E-13, 1.199999999999995293, 38.00000000000000000 ) ) ;
#67 = FACE_OUTER_BOUND ( 'NONE', #182, .T. ) ;
#68 = AXIS2_PLACEMENT_3D ( 'NONE', #189, #71, #148 ) ;
#69 = CARTESIAN_POINT ( 'NONE',  ( 8.728703347107828655E-15, 0.000000000000000000, 2.499999999999998668 ) ) ;
#70 = CARTESIAN_POINT ( 'NONE',  ( 0.000000000000000000, 0.000000000000000000, 0.000000000000000000 ) ) ;
#71 = DIRECTION ( 'NONE',  ( 3.491481338843133355E-15, -0.000000000000000000, 1.000000000000000000 ) ) ;
#72 = DATE_TIME_ROLE ( 'classification_date' ) ;
#73 = PERSON_AND_ORGANIZATION ( #38, #201 ) ;
#74 = PERSON_AND_ORGANIZATION ( #38, #201 ) ;
#75 = AXIS2_PLACEMENT_3D ( 'NONE', #145, #198, #128 ) ;
#76 = APPROVAL ( #30, 'UNSPECIFIED' ) ;
#77 = AXIS2_PLACEMENT_3D ( 'NONE', #99, #36, #16 ) ;
#78 = EDGE_LOOP ( 'NONE', ( #113 ) ) ;
#79 = ORIENTED_EDGE ( 'NONE', *, *, #15, .F. ) ;
#80 = AXIS2_PLACEMENT_3D ( 'NONE', #37, #2, #183 ) ;
#81 = DIRECTION ( 'NONE',  ( 4.275831445896959482E-31, 1.000000000000000000, 1.224646799147353207E-16 ) ) ;
#82 = DIRECTION ( 'NONE',  ( 1.000000000000000000, 0.000000000000000000, -3.491481338843133355E-15 ) ) ;
#83 = PRODUCT_DEFINITION ( 'UNKNOWN', '', #139, #221 ) ;
#84 = VERTEX_POINT ( 'NONE', #184 ) ;
#85 = AXIS2_PLACEMENT_3D ( 'NONE', #115, #132, #7 ) ;
#86 = DIRECTION ( 'NONE',  ( 0.000000000000000000, 1.000000000000000000, 0.000000000000000000 ) ) ;
#87 = CYLINDRICAL_SURFACE ( 'NONE', #138, 1.249999999999999556 ) ;
#88 = APPROVAL_ROLE ( '' ) ;
#89 = PERSON_AND_ORGANIZATION_ROLE ( 'design_supplier' ) ;
#90 = ADVANCED_BREP_SHAPE_REPRESENTATION ( '977834', ( #29, #167, #120 ), #31 ) ;
#91 = PERSON_AND_ORGANIZATION ( #38, #201 ) ;
#92 = CALENDAR_DATE ( 2023, 1, 2 ) ;
#93 = LOCAL_TIME ( 16, 37, 57.00000000000000000, #196 ) ;
#94 = CIRCLE ( 'NONE', #4, 1.499999999999999778 ) ;
#95 = ORIENTED_EDGE ( 'NONE', *, *, #172, .F. ) ;
#96 = ORIENTED_EDGE ( 'NONE', *, *, #190, .F. ) ;
#97 = DIRECTION ( 'NONE',  ( 4.275831445896958607E-31, 1.000000000000000000, 1.224646799147353207E-16 ) ) ;
#98 = CARTESIAN_POINT ( 'NONE',  ( 1.316288464743861212E-13, -4.616918432785521081E-15, 37.69999999999999574 ) ) ;
#99 = CARTESIAN_POINT ( 'NONE',  ( -3.206873584422719393E-31, 1.124819836996393206E-32, -9.184850993605149670E-17 ) ) ;
#100 = PLANE ( 'NONE',  #80 ) ;
#101 = ADVANCED_FACE ( 'NONE', ( #40, #6 ), #207, .F. ) ;
#102 = AXIS2_PLACEMENT_3D ( 'NONE', #35, #153, #97 ) ;
#103 = DIRECTION ( 'NONE',  ( -1.000000000000000000, 0.000000000000000000, 3.469446951953614189E-15 ) ) ;
#104 = APPROVAL_ROLE ( '' ) ;
#105 = CALENDAR_DATE ( 2023, 1, 2 ) ;
#106 = APPLICATION_CONTEXT ( 'configuration controlled 3d designs of mechanical parts and assemblies' ) ;
#107 = APPLICATION_PROTOCOL_DEFINITION ( 'international standard', 'config_control_design', 1994, #202 ) ;
#108 = EDGE_LOOP ( 'NONE', ( #96 ) ) ;
#109 = SECURITY_CLASSIFICATION ( '', '', #56 ) ;
#110 = ORIENTED_EDGE ( 'NONE', *, *, #147, .F. ) ;
#111 = DATE_AND_TIME ( #143, #93 ) ;
#112 = FACE_OUTER_BOUND ( 'NONE', #62, .T. ) ;
#113 = ORIENTED_EDGE ( 'NONE', *, *, #22, .F. ) ;
#114 = CC_DESIGN_APPROVAL ( #24, ( #109 ) ) ;
#115 = CARTESIAN_POINT ( 'NONE',  ( 8.728703347107831810E-15, 0.000000000000000000, 2.499999999999999556 ) ) ;
#116 = CARTESIAN_POINT ( 'NONE',  ( -1.499999999999984457, 0.000000000000000000, 4.484313483298448588 ) ) ;
#117 = VERTEX_POINT ( 'NONE', #116 ) ;
#118 = FACE_OUTER_BOUND ( 'NONE', #217, .T. ) ;
#119 = DIRECTION ( 'NONE',  ( -3.491481338843133355E-15, 1.224646799147353207E-16, -1.000000000000000000 ) ) ;
#120 = AXIS2_PLACEMENT_3D ( 'NONE', #216, #122, #135 ) ;
#121 = COORDINATED_UNIVERSAL_TIME_OFFSET ( 1, 0, .AHEAD. ) ;
#122 = DIRECTION ( 'NONE',  ( 0.000000000000000000, 0.000000000000000000, 1.000000000000000000 ) ) ;
#123 = CC_DESIGN_PERSON_AND_ORGANIZATION_ASSIGNMENT ( #126, #195, ( #83 ) ) ;
#124 = PERSON_AND_ORGANIZATION ( #38, #201 ) ;
#125 = EDGE_CURVE ( 'NONE', #84, #84, #163, .T. ) ;
#126 = PERSON_AND_ORGANIZATION ( #38, #201 ) ;
#127 = APPROVAL_PERSON_ORGANIZATION ( #74, #159, #88 ) ;
#128 = DIRECTION ( 'NONE',  ( 0.000000000000000000, 1.000000000000000000, 0.000000000000000000 ) ) ;
#129 = DIRECTION ( 'NONE',  ( 3.491481338843133355E-15, -1.224646799147353207E-16, 1.000000000000000000 ) ) ;
#130 = CONICAL_SURFACE ( 'NONE', #75, 1.499999999999999778, 0.7853981633974453924 ) ;
#131 = DIRECTION ( 'NONE',  ( -3.491481338843133355E-15, 1.224646799147353207E-16, -1.000000000000000000 ) ) ;
#132 = DIRECTION ( 'NONE',  ( 3.491481338843133355E-15, -0.000000000000000000, 1.000000000000000000 ) ) ;
#133 = PERSON_AND_ORGANIZATION ( #38, #201 ) ;
#134 = APPROVAL_PERSON_ORGANIZATION ( #73, #24, #213 ) ;
#135 = DIRECTION ( 'NONE',  ( 1.000000000000000000, 0.000000000000000000, 0.000000000000000000 ) ) ;
#136 = APPROVAL_STATUS ( 'not_yet_approved' ) ;
#137 = COORDINATED_UNIVERSAL_TIME_OFFSET ( 1, 0, .AHEAD. ) ;
#138 = AXIS2_PLACEMENT_3D ( 'NONE', #70, #209, #1 ) ;
#139 = PRODUCT_DEFINITION_FORMATION_WITH_SPECIFIED_SOURCE ( 'ANY', '', #144, .NOT_KNOWN. ) ;
#140 = SHAPE_DEFINITION_REPRESENTATION ( #52, #90 ) ;
#141 = ORIENTED_EDGE ( 'NONE', *, *, #125, .F. ) ;
#142 = CIRCLE ( 'NONE', #59, 1.500000000000000000 ) ;
#143 = CALENDAR_DATE ( 2023, 1, 2 ) ;
#144 = PRODUCT ( '977834', '977834', '', ( #157 ) ) ;
#145 = CARTESIAN_POINT ( 'NONE',  ( 1.316288464743861212E-13, -4.616918432785521081E-15, 37.69999999999999574 ) ) ;
#146 = APPROVAL_PERSON_ORGANIZATION ( #43, #76, #104 ) ;
#147 = EDGE_CURVE ( 'NONE', #150, #150, #94, .T. ) ;
#148 = DIRECTION ( 'NONE',  ( 1.000000000000000000, 0.000000000000000000, -3.469446951953616161E-15 ) ) ;
#149 = FACE_OUTER_BOUND ( 'NONE', #180, .T. ) ;
#150 = VERTEX_POINT ( 'NONE', #3 ) ;
#151 = ADVANCED_FACE ( 'NONE', ( #171, #118 ), #49, .T. ) ;
#152 = CIRCLE ( 'NONE', #215, 1.249999999999999778 ) ;
#153 = DIRECTION ( 'NONE',  ( -3.491481338843133355E-15, 1.224646799147353207E-16, -1.000000000000000000 ) ) ;
#154 = CC_DESIGN_DATE_AND_TIME_ASSIGNMENT ( #58, #176, ( #83 ) ) ;
#155 = PLANE ( 'NONE',  #77 ) ;
#156 = CALENDAR_DATE ( 2023, 1, 2 ) ;
#157 = MECHANICAL_CONTEXT ( 'NONE', #202, 'mechanical' ) ;
#158 = PERSON_AND_ORGANIZATION_ROLE ( 'classification_officer' ) ;
#159 = APPROVAL ( #175, 'UNSPECIFIED' ) ;
#160 =( NAMED_UNIT ( * ) SI_UNIT ( $, .STERADIAN. ) SOLID_ANGLE_UNIT ( ) );
#161 = LOCAL_TIME ( 16, 37, 57.00000000000000000, #192 ) ;
#162 = CC_DESIGN_PERSON_AND_ORGANIZATION_ASSIGNMENT ( #133, #158, ( #109 ) ) ;
#163 = CIRCLE ( 'NONE', #68, 1.249999999999999334 ) ;
#164 = ORIENTED_EDGE ( 'NONE', *, *, #125, .T. ) ;
#165 = VERTEX_POINT ( 'NONE', #66 ) ;
#166 = CARTESIAN_POINT ( 'NONE',  ( -1.282749433769087582E-30, 0.000000000000000000, -3.673940397442059375E-16 ) ) ;
#167 = MANIFOLD_SOLID_BREP ( 'Corps-Déplacer/Copier1[2]', #60 ) ;
#168 = FACE_OUTER_BOUND ( 'NONE', #34, .T. ) ;
#169 = DIRECTION ( 'NONE',  ( 3.491481338843133355E-15, -0.000000000000000000, 1.000000000000000000 ) ) ;
#170 = AXIS2_PLACEMENT_3D ( 'NONE', #69, #206, #19 ) ;
#171 = FACE_OUTER_BOUND ( 'NONE', #222, .T. ) ;
#172 = EDGE_CURVE ( 'NONE', #53, #53, #152, .T. ) ;
#173 = VERTEX_POINT ( 'NONE', #9 ) ;
#174 = ADVANCED_FACE ( 'NONE', ( #149, #168 ), #87, .T. ) ;
#175 = APPROVAL_STATUS ( 'not_yet_approved' ) ;
#176 = DATE_TIME_ROLE ( 'creation_date' ) ;
#177 = ADVANCED_FACE ( 'NONE', ( #20 ), #39, .T. ) ;
#178 = CARTESIAN_POINT ( 'NONE',  ( 1.326762908760390423E-13, -4.653657836759941941E-15, 38.00000000000000000 ) ) ;
#179 = ORIENTED_EDGE ( 'NONE', *, *, #147, .T. ) ;
#180 = EDGE_LOOP ( 'NONE', ( #65 ) ) ;
#181 = AXIS2_PLACEMENT_3D ( 'NONE', #23, #50, #81 ) ;
#182 = EDGE_LOOP ( 'NONE', ( #79 ) ) ;
#183 = DIRECTION ( 'NONE',  ( -4.275831445896958607E-31, -1.000000000000000000, -1.224646799147353207E-16 ) ) ;
#184 = CARTESIAN_POINT ( 'NONE',  ( 1.250000000000007994, 0.000000000000000000, 2.499999999999994227 ) ) ;
#185 = CLOSED_SHELL ( 'NONE', ( #151, #5, #205, #101, #197 ) ) ;
#186 = DIRECTION ( 'NONE',  ( -4.275831445896958607E-31, -1.000000000000000000, -1.224646799147353207E-16 ) ) ;
#187 = FACE_OUTER_BOUND ( 'NONE', #108, .T. ) ;
#188 = PRODUCT_RELATED_PRODUCT_CATEGORY ( 'detail', '', ( #144 ) ) ;
#189 = CARTESIAN_POINT ( 'NONE',  ( 8.728703347107828655E-15, 0.000000000000000000, 2.499999999999998668 ) ) ;
#190 = EDGE_CURVE ( 'NONE', #173, #173, #47, .T. ) ;
#191 = CC_DESIGN_APPROVAL ( #76, ( #139 ) ) ;
#192 = COORDINATED_UNIVERSAL_TIME_OFFSET ( 1, 0, .AHEAD. ) ;
#193 = PERSON_AND_ORGANIZATION_ROLE ( 'design_owner' ) ;
#194 = AXIS2_PLACEMENT_3D ( 'NONE', #178, #131, #86 ) ;
#195 = PERSON_AND_ORGANIZATION_ROLE ( 'creator' ) ;
#196 = COORDINATED_UNIVERSAL_TIME_OFFSET ( 1, 0, .AHEAD. ) ;
#197 = ADVANCED_FACE ( 'NONE', ( #187 ), #100, .F. ) ;
#198 = DIRECTION ( 'NONE',  ( -3.491481338843133355E-15, 1.224646799147353207E-16, -1.000000000000000000 ) ) ;
#199 = EDGE_LOOP ( 'NONE', ( #164 ) ) ;
#200 = CC_DESIGN_PERSON_AND_ORGANIZATION_ASSIGNMENT ( #10, #193, ( #144 ) ) ;
#201 = ORGANIZATION ( 'UNSPECIFIED', 'UNSPECIFIED', '' ) ;
#202 = APPLICATION_CONTEXT ( 'configuration controlled 3d designs of mechanical parts and assemblies' ) ;
#203 = DIRECTION ( 'NONE',  ( 3.491481338843133355E-15, -0.000000000000000000, 1.000000000000000000 ) ) ;
#204 = DIRECTION ( 'NONE',  ( 0.000000000000000000, 1.000000000000000000, 0.000000000000000000 ) ) ;
#205 = ADVANCED_FACE ( 'NONE', ( #67 ), #51, .F. ) ;
#206 = DIRECTION ( 'NONE',  ( 3.491481338843133355E-15, -0.000000000000000000, 1.000000000000000000 ) ) ;
#207 = TOROIDAL_SURFACE ( 'NONE', #85, 9.250000000000000000, 8.000000000000000000 ) ;
#208 = CARTESIAN_POINT ( 'NONE',  ( 8.728703347107831810E-15, 1.124819836996392932E-32, 2.499999999999999556 ) ) ;
#209 = DIRECTION ( 'NONE',  ( 3.491481338843133355E-15, -0.000000000000000000, 1.000000000000000000 ) ) ;
#210 =( LENGTH_UNIT ( ) NAMED_UNIT ( * ) SI_UNIT ( .MILLI., .METRE. ) );
#211 = CC_DESIGN_APPROVAL ( #159, ( #83 ) ) ;
#212 = APPROVAL_DATE_TIME ( #42, #159 ) ;
#213 = APPROVAL_ROLE ( '' ) ;
#214 = PERSON_AND_ORGANIZATION_ROLE ( 'creator' ) ;
#215 = AXIS2_PLACEMENT_3D ( 'NONE', #166, #169, #82 ) ;
#216 = CARTESIAN_POINT ( 'NONE',  ( 0.000000000000000000, 0.000000000000000000, 0.000000000000000000 ) ) ;
#217 = EDGE_LOOP ( 'NONE', ( #46 ) ) ;
#218 = CC_DESIGN_PERSON_AND_ORGANIZATION_ASSIGNMENT ( #124, #89, ( #139 ) ) ;
#219 = ORIENTED_EDGE ( 'NONE', *, *, #190, .T. ) ;
#220 = CC_DESIGN_DATE_AND_TIME_ASSIGNMENT ( #8, #72, ( #109 ) ) ;
#221 = DESIGN_CONTEXT ( 'detailed design', #106, 'design' ) ;
#222 = EDGE_LOOP ( 'NONE', ( #179 ) ) ;
#223 = CC_DESIGN_SECURITY_CLASSIFICATION ( #109, ( #139 ) ) ;
ENDSEC;
END-ISO-10303-21;
