ISO-10303-21;
HEADER;
FILE_DESCRIPTION (( 'STEP AP203' ),
    '1' );
FILE_NAME ('977833.step',
    '2023-02-01T15:37:56',
    ( '' ),
    ( '' ),
    'SwSTEP 2.0',
    'SolidWorks 2019',
    '' );
FILE_SCHEMA (( 'CONFIG_CONTROL_DESIGN' ));
ENDSEC;

DATA;
#1 = DATE_TIME_ROLE ( 'creation_date' ) ;
#2 = AXIS2_PLACEMENT_3D ( 'NONE', #48, #17, #52 ) ;
#3 = EDGE_CURVE ( 'NONE', #179, #179, #79, .T. ) ;
#4 = PERSON ( 'UNSPECIFIED', 'UNSPECIFIED', 'UNSPECIFIED', ('UNSPECIFIED'), ('UNSPECIFIED'), ('UNSPECIFIED') ) ;
#5 = CARTESIAN_POINT ( 'NONE',  ( 6.982962677686266711E-15, 1.124819836996392932E-32, 2.000000000000000000 ) ) ;
#6 = CARTESIAN_POINT ( 'NONE',  ( 1.316288464743861212E-13, 1.499999999999995337, 37.69999999999999574 ) ) ;
#7 = DIRECTION ( 'NONE',  ( 1.000000000000000000, 0.000000000000000000, -3.491481338843132961E-15 ) ) ;
#8 = VERTEX_POINT ( 'NONE', #34 ) ;
#9 = COORDINATED_UNIVERSAL_TIME_OFFSET ( 1, 0, .AHEAD. ) ;
#10 = APPROVAL_STATUS ( 'not_yet_approved' ) ;
#11 = CYLINDRICAL_SURFACE ( 'NONE', #19, 1.000000000000000444 ) ;
#12 = ORIENTED_EDGE ( 'NONE', *, *, #98, .F. ) ;
#13 = CALENDAR_DATE ( 2023, 1, 2 ) ;
#14 = APPLICATION_PROTOCOL_DEFINITION ( 'international standard', 'config_control_design', 1994, #141 ) ;
#15 = DIRECTION ( 'NONE',  ( 3.491481338843133355E-15, -0.000000000000000000, 1.000000000000000000 ) ) ;
#16 = PLANE ( 'NONE',  #24 ) ;
#17 = DIRECTION ( 'NONE',  ( -3.491481338843133355E-15, 1.224646799147353207E-16, -1.000000000000000000 ) ) ;
#18 = CARTESIAN_POINT ( 'NONE',  ( 1.000000000000000000, 0.000000000000000000, -3.858875378587339589E-15 ) ) ;
#19 = AXIS2_PLACEMENT_3D ( 'NONE', #25, #15, #135 ) ;
#20 =( NAMED_UNIT ( * ) SI_UNIT ( $, .STERADIAN. ) SOLID_ANGLE_UNIT ( ) );
#21 = DIRECTION ( 'NONE',  ( 3.491481338843133355E-15, -1.224646799147353207E-16, 1.000000000000000000 ) ) ;
#22 = DATE_TIME_ROLE ( 'classification_date' ) ;
#23 = APPROVAL_STATUS ( 'not_yet_approved' ) ;
#24 = AXIS2_PLACEMENT_3D ( 'NONE', #5, #21, #212 ) ;
#25 = CARTESIAN_POINT ( 'NONE',  ( 0.000000000000000000, 0.000000000000000000, 0.000000000000000000 ) ) ;
#26 = FACE_OUTER_BOUND ( 'NONE', #131, .T. ) ;
#27 = DIRECTION ( 'NONE',  ( -3.491481338843133355E-15, 1.224646799147353207E-16, -1.000000000000000000 ) ) ;
#28 = AXIS2_PLACEMENT_3D ( 'NONE', #203, #150, #112 ) ;
#29 = APPROVAL ( #23, 'UNSPECIFIED' ) ;
#30 = CARTESIAN_POINT ( 'NONE',  ( -3.206873584422719393E-31, 1.124819836996393206E-32, -9.184850993605149670E-17 ) ) ;
#31 = PLANE ( 'NONE',  #54 ) ;
#32 = ORIENTED_EDGE ( 'NONE', *, *, #99, .F. ) ;
#33 = DIRECTION ( 'NONE',  ( 4.275831445896958607E-31, 1.000000000000000000, 1.224646799147353207E-16 ) ) ;
#34 = CARTESIAN_POINT ( 'NONE',  ( 1.000000000000007772, 0.000000000000000000, 1.999999999999995781 ) ) ;
#35 = AXIS2_PLACEMENT_3D ( 'NONE', #51, #106, #208 ) ;
#36 = DIRECTION ( 'NONE',  ( -4.275831445896958607E-31, -1.000000000000000000, -1.224646799147353207E-16 ) ) ;
#37 = CLOSED_SHELL ( 'NONE', ( #176, #45, #219 ) ) ;
#38 = EDGE_LOOP ( 'NONE', ( #32 ) ) ;
#39 = PERSON_AND_ORGANIZATION_ROLE ( 'creator' ) ;
#40 = EDGE_LOOP ( 'NONE', ( #103 ) ) ;
#41 = COORDINATED_UNIVERSAL_TIME_OFFSET ( 1, 0, .AHEAD. ) ;
#42 = DIRECTION ( 'NONE',  ( 0.000000000000000000, 1.000000000000000000, 0.000000000000000000 ) ) ;
#43 = DATE_AND_TIME ( #80, #65 ) ;
#44 = AXIS2_PLACEMENT_3D ( 'NONE', #190, #53, #7 ) ;
#45 = ADVANCED_FACE ( 'NONE', ( #127, #26 ), #11, .T. ) ;
#46 = CARTESIAN_POINT ( 'NONE',  ( 1.316288464743861212E-13, -4.616918432785521081E-15, 37.69999999999999574 ) ) ;
#47 = PRODUCT_DEFINITION_FORMATION_WITH_SPECIFIED_SOURCE ( 'ANY', '', #85, .NOT_KNOWN. ) ;
#48 = CARTESIAN_POINT ( 'NONE',  ( 1.316288464743861212E-13, -4.616918432785521081E-15, 37.69999999999999574 ) ) ;
#49 = SECURITY_CLASSIFICATION ( '', '', #63 ) ;
#50 = EDGE_CURVE ( 'NONE', #8, #8, #160, .T. ) ;
#51 = CARTESIAN_POINT ( 'NONE',  ( 0.000000000000000000, 0.000000000000000000, 0.000000000000000000 ) ) ;
#52 = DIRECTION ( 'NONE',  ( 0.000000000000000000, 1.000000000000000000, 0.000000000000000000 ) ) ;
#53 = DIRECTION ( 'NONE',  ( 3.491481338843133355E-15, -0.000000000000000000, 1.000000000000000000 ) ) ;
#54 = AXIS2_PLACEMENT_3D ( 'NONE', #139, #121, #33 ) ;
#55 = DIRECTION ( 'NONE',  ( -1.000000000000000000, 0.000000000000000000, 3.469446951953614189E-15 ) ) ;
#56 = PLANE ( 'NONE',  #143 ) ;
#57 = ORIENTED_EDGE ( 'NONE', *, *, #3, .F. ) ;
#58 = PERSON_AND_ORGANIZATION ( #4, #83 ) ;
#59 = SHAPE_DEFINITION_REPRESENTATION ( #138, #207 ) ;
#60 = CARTESIAN_POINT ( 'NONE',  ( 6.982962677686263555E-15, 0.000000000000000000, 1.999999999999999112 ) ) ;
#61 = APPROVAL_PERSON_ORGANIZATION ( #58, #84, #136 ) ;
#62 = EDGE_CURVE ( 'NONE', #104, #104, #205, .T. ) ;
#63 = SECURITY_CLASSIFICATION_LEVEL ( 'unclassified' ) ;
#64 = DIRECTION ( 'NONE',  ( 1.000000000000000000, 0.000000000000000000, -3.469446951953611033E-15 ) ) ;
#65 = LOCAL_TIME ( 16, 37, 56.00000000000000000, #9 ) ;
#66 = CIRCLE ( 'NONE', #191, 1.499999999999999778 ) ;
#67 = PRODUCT_RELATED_PRODUCT_CATEGORY ( 'detail', '', ( #85 ) ) ;
#68 = CC_DESIGN_APPROVAL ( #29, ( #47 ) ) ;
#69 = FACE_OUTER_BOUND ( 'NONE', #81, .T. ) ;
#70 = CC_DESIGN_PERSON_AND_ORGANIZATION_ASSIGNMENT ( #202, #114, ( #47 ) ) ;
#71 = APPLICATION_PROTOCOL_DEFINITION ( 'international standard', 'config_control_design', 1994, #132 ) ;
#72 = CARTESIAN_POINT ( 'NONE',  ( 1.326762908760390423E-13, 1.199999999999995293, 38.00000000000000000 ) ) ;
#73 = CIRCLE ( 'NONE', #117, 1.199999999999999956 ) ;
#74 =( LENGTH_UNIT ( ) NAMED_UNIT ( * ) SI_UNIT ( .MILLI., .METRE. ) );
#75 = EDGE_CURVE ( 'NONE', #102, #102, #66, .T. ) ;
#76 = DIRECTION ( 'NONE',  ( 4.275831445896958607E-31, 1.000000000000000000, 1.224646799147353207E-16 ) ) ;
#77 = LOCAL_TIME ( 16, 37, 56.00000000000000000, #107 ) ;
#78 = PERSON_AND_ORGANIZATION ( #4, #83 ) ;
#79 = CIRCLE ( 'NONE', #172, 1.500000000000000000 ) ;
#80 = CALENDAR_DATE ( 2023, 1, 2 ) ;
#81 = EDGE_LOOP ( 'NONE', ( #167 ) ) ;
#82 = MECHANICAL_CONTEXT ( 'NONE', #132, 'mechanical' ) ;
#83 = ORGANIZATION ( 'UNSPECIFIED', 'UNSPECIFIED', '' ) ;
#84 = APPROVAL ( #10, 'UNSPECIFIED' ) ;
#85 = PRODUCT ( '977833', '977833', '', ( #82 ) ) ;
#86 = CC_DESIGN_APPROVAL ( #220, ( #173 ) ) ;
#87 = MANIFOLD_SOLID_BREP ( 'Corps-Déplacer/Copier1[2]', #37 ) ;
#88 = FACE_OUTER_BOUND ( 'NONE', #182, .T. ) ;
#89 = DIRECTION ( 'NONE',  ( -3.491481338843133355E-15, 1.224646799147353207E-16, -1.000000000000000000 ) ) ;
#90 = FACE_OUTER_BOUND ( 'NONE', #181, .T. ) ;
#91 = COORDINATED_UNIVERSAL_TIME_OFFSET ( 1, 0, .AHEAD. ) ;
#92 = COORDINATED_UNIVERSAL_TIME_OFFSET ( 1, 0, .AHEAD. ) ;
#93 = CARTESIAN_POINT ( 'NONE',  ( 1.326762908760390423E-13, -4.653657836759941941E-15, 38.00000000000000000 ) ) ;
#94 = PERSON_AND_ORGANIZATION ( #4, #83 ) ;
#95 = DIRECTION ( 'NONE',  ( 3.491481338843133355E-15, -0.000000000000000000, 1.000000000000000000 ) ) ;
#96 = DATE_AND_TIME ( #168, #171 ) ;
#97 = PERSON_AND_ORGANIZATION ( #4, #83 ) ;
#98 = EDGE_CURVE ( 'NONE', #128, #128, #137, .T. ) ;
#99 = EDGE_CURVE ( 'NONE', #177, #177, #73, .T. ) ;
#100 = ADVANCED_FACE ( 'NONE', ( #169, #206 ), #184, .T. ) ;
#101 = FACE_OUTER_BOUND ( 'NONE', #196, .T. ) ;
#102 = VERTEX_POINT ( 'NONE', #6 ) ;
#103 = ORIENTED_EDGE ( 'NONE', *, *, #99, .T. ) ;
#104 = VERTEX_POINT ( 'NONE', #18 ) ;
#105 = EDGE_LOOP ( 'NONE', ( #144 ) ) ;
#106 = DIRECTION ( 'NONE',  ( -3.491481338843133355E-15, 1.224646799147353207E-16, -1.000000000000000000 ) ) ;
#107 = COORDINATED_UNIVERSAL_TIME_OFFSET ( 1, 0, .AHEAD. ) ;
#108 = ORIENTED_EDGE ( 'NONE', *, *, #98, .T. ) ;
#109 = CC_DESIGN_PERSON_AND_ORGANIZATION_ASSIGNMENT ( #166, #149, ( #173 ) ) ;
#110 = ORIENTED_EDGE ( 'NONE', *, *, #75, .F. ) ;
#111 = DATE_AND_TIME ( #185, #187 ) ;
#112 = DIRECTION ( 'NONE',  ( 1.000000000000000000, 0.000000000000000000, -3.491481338843133355E-15 ) ) ;
#113 = CC_DESIGN_SECURITY_CLASSIFICATION ( #49, ( #47 ) ) ;
#114 = PERSON_AND_ORGANIZATION_ROLE ( 'design_supplier' ) ;
#115 = CARTESIAN_POINT ( 'NONE',  ( 6.982962677686263555E-15, 0.000000000000000000, 1.999999999999999112 ) ) ;
#116 = CC_DESIGN_DATE_AND_TIME_ASSIGNMENT ( #217, #22, ( #49 ) ) ;
#117 = AXIS2_PLACEMENT_3D ( 'NONE', #93, #134, #42 ) ;
#118 = DIRECTION ( 'NONE',  ( 3.491481338843133355E-15, -0.000000000000000000, 1.000000000000000000 ) ) ;
#119 = FACE_OUTER_BOUND ( 'NONE', #129, .T. ) ;
#120 = AXIS2_PLACEMENT_3D ( 'NONE', #124, #165, #195 ) ;
#121 = DIRECTION ( 'NONE',  ( -3.491481338843133355E-15, 1.224646799147353207E-16, -1.000000000000000000 ) ) ;
#122 = PLANE ( 'NONE',  #213 ) ;
#123 = ADVANCED_FACE ( 'NONE', ( #119, #69 ), #215, .T. ) ;
#124 = CARTESIAN_POINT ( 'NONE',  ( 0.000000000000000000, 0.000000000000000000, 0.000000000000000000 ) ) ;
#125 = ADVANCED_FACE ( 'NONE', ( #161 ), #31, .F. ) ;
#126 = CC_DESIGN_PERSON_AND_ORGANIZATION_ASSIGNMENT ( #222, #170, ( #49 ) ) ;
#127 = FACE_OUTER_BOUND ( 'NONE', #105, .T. ) ;
#128 = VERTEX_POINT ( 'NONE', #145 ) ;
#129 = EDGE_LOOP ( 'NONE', ( #147 ) ) ;
#130 = DATE_AND_TIME ( #201, #211 ) ;
#131 = EDGE_LOOP ( 'NONE', ( #218 ) ) ;
#132 = APPLICATION_CONTEXT ( 'configuration controlled 3d designs of mechanical parts and assemblies' ) ;
#133 = PERSON_AND_ORGANIZATION ( #4, #83 ) ;
#134 = DIRECTION ( 'NONE',  ( -3.491481338843133355E-15, 1.224646799147353207E-16, -1.000000000000000000 ) ) ;
#135 = DIRECTION ( 'NONE',  ( 1.000000000000000000, 0.000000000000000000, -3.491481338843133355E-15 ) ) ;
#136 = APPROVAL_ROLE ( '' ) ;
#137 = CIRCLE ( 'NONE', #200, 1.000000000000000888 ) ;
#138 = PRODUCT_DEFINITION_SHAPE ( 'NONE', 'NONE',  #173 ) ;
#139 = CARTESIAN_POINT ( 'NONE',  ( 1.326762908760390423E-13, 8.998558695971077224E-33, 38.00000000000000000 ) ) ;
#140 = CARTESIAN_POINT ( 'NONE',  ( 6.982962677686266711E-15, 1.124819836996392932E-32, 2.000000000000000000 ) ) ;
#141 = APPLICATION_CONTEXT ( 'configuration controlled 3d designs of mechanical parts and assemblies' ) ;
#142 = UNCERTAINTY_MEASURE_WITH_UNIT (LENGTH_MEASURE( 1.000000000000000082E-05 ), #74, 'distance_accuracy_value', 'NONE');
#143 = AXIS2_PLACEMENT_3D ( 'NONE', #140, #159, #36 ) ;
#144 = ORIENTED_EDGE ( 'NONE', *, *, #62, .T. ) ;
#145 = CARTESIAN_POINT ( 'NONE',  ( 1.000000000000007772, 0.000000000000000000, 1.999999999999995781 ) ) ;
#146 = APPROVAL_STATUS ( 'not_yet_approved' ) ;
#147 = ORIENTED_EDGE ( 'NONE', *, *, #75, .T. ) ;
#148 = AXIS2_PLACEMENT_3D ( 'NONE', #115, #95, #64 ) ;
#149 = PERSON_AND_ORGANIZATION_ROLE ( 'creator' ) ;
#150 = DIRECTION ( 'NONE',  ( 3.491481338843133355E-15, -0.000000000000000000, 1.000000000000000000 ) ) ;
#151 = ADVANCED_FACE ( 'NONE', ( #193 ), #56, .F. ) ;
#152 = APPROVAL_ROLE ( '' ) ;
#153 = CC_DESIGN_PERSON_AND_ORGANIZATION_ASSIGNMENT ( #94, #39, ( #47 ) ) ;
#154 = APPROVAL_PERSON_ORGANIZATION ( #97, #220, #152 ) ;
#155 = APPROVAL_DATE_TIME ( #130, #220 ) ;
#156 = DIRECTION ( 'NONE',  ( 0.000000000000000000, 1.000000000000000000, 0.000000000000000000 ) ) ;
#157 = TOROIDAL_SURFACE ( 'NONE', #44, 9.000000000000001776, 8.000000000000000000 ) ;
#158 = ADVANCED_FACE ( 'NONE', ( #90, #88 ), #157, .F. ) ;
#159 = DIRECTION ( 'NONE',  ( 3.491481338843133355E-15, -1.224646799147353207E-16, 1.000000000000000000 ) ) ;
#160 = CIRCLE ( 'NONE', #148, 1.000000000000000888 ) ;
#161 = FACE_OUTER_BOUND ( 'NONE', #38, .T. ) ;
#162 = CARTESIAN_POINT ( 'NONE',  ( 1.670283536363468126E-14, 0.000000000000000000, 4.783882181415007651 ) ) ;
#163 = MANIFOLD_SOLID_BREP ( 'Corps-Déplacer/Copier1[1]', #164 ) ;
#164 = CLOSED_SHELL ( 'NONE', ( #123, #100, #125, #158, #151 ) ) ;
#165 = DIRECTION ( 'NONE',  ( 0.000000000000000000, 0.000000000000000000, 1.000000000000000000 ) ) ;
#166 = PERSON_AND_ORGANIZATION ( #4, #83 ) ;
#167 = ORIENTED_EDGE ( 'NONE', *, *, #3, .T. ) ;
#168 = CALENDAR_DATE ( 2023, 1, 2 ) ;
#169 = FACE_BOUND ( 'NONE', #40, .T. ) ;
#170 = PERSON_AND_ORGANIZATION_ROLE ( 'classification_officer' ) ;
#171 = LOCAL_TIME ( 16, 37, 56.00000000000000000, #92 ) ;
#172 = AXIS2_PLACEMENT_3D ( 'NONE', #162, #214, #55 ) ;
#173 = PRODUCT_DEFINITION ( 'UNKNOWN', '', #47, #209 ) ;
#174 = FACE_OUTER_BOUND ( 'NONE', #216, .T. ) ;
#175 =( NAMED_UNIT ( * ) PLANE_ANGLE_UNIT ( ) SI_UNIT ( $, .RADIAN. ) );
#176 = ADVANCED_FACE ( 'NONE', ( #101 ), #16, .T. ) ;
#177 = VERTEX_POINT ( 'NONE', #72 ) ;
#178 = ORIENTED_EDGE ( 'NONE', *, *, #62, .F. ) ;
#179 = VERTEX_POINT ( 'NONE', #210 ) ;
#180 = APPROVAL_PERSON_ORGANIZATION ( #133, #29, #198 ) ;
#181 = EDGE_LOOP ( 'NONE', ( #57 ) ) ;
#182 = EDGE_LOOP ( 'NONE', ( #108 ) ) ;
#183 = PERSON_AND_ORGANIZATION_ROLE ( 'design_owner' ) ;
#184 = CONICAL_SURFACE ( 'NONE', #2, 1.499999999999999778, 0.7853981633974453924 ) ;
#185 = CALENDAR_DATE ( 2023, 1, 2 ) ;
#186 = EDGE_LOOP ( 'NONE', ( #110 ) ) ;
#187 = LOCAL_TIME ( 16, 37, 56.00000000000000000, #91 ) ;
#188 = DIRECTION ( 'NONE',  ( 1.000000000000000000, 0.000000000000000000, -3.469446951953611033E-15 ) ) ;
#189 = CC_DESIGN_PERSON_AND_ORGANIZATION_ASSIGNMENT ( #78, #183, ( #85 ) ) ;
#190 = CARTESIAN_POINT ( 'NONE',  ( 6.982962677686266711E-15, 0.000000000000000000, 2.000000000000000000 ) ) ;
#191 = AXIS2_PLACEMENT_3D ( 'NONE', #46, #27, #156 ) ;
#192 = ORIENTED_EDGE ( 'NONE', *, *, #50, .T. ) ;
#193 = FACE_OUTER_BOUND ( 'NONE', #221, .T. ) ;
#194 = CC_DESIGN_DATE_AND_TIME_ASSIGNMENT ( #96, #1, ( #173 ) ) ;
#195 = DIRECTION ( 'NONE',  ( 1.000000000000000000, 0.000000000000000000, 0.000000000000000000 ) ) ;
#196 = EDGE_LOOP ( 'NONE', ( #192 ) ) ;
#197 = APPROVAL_DATE_TIME ( #43, #84 ) ;
#198 = APPROVAL_ROLE ( '' ) ;
#199 = APPROVAL_DATE_TIME ( #111, #29 ) ;
#200 = AXIS2_PLACEMENT_3D ( 'NONE', #60, #118, #188 ) ;
#201 = CALENDAR_DATE ( 2023, 1, 2 ) ;
#202 = PERSON_AND_ORGANIZATION ( #4, #83 ) ;
#203 = CARTESIAN_POINT ( 'NONE',  ( -1.282749433769087582E-30, 0.000000000000000000, -3.673940397442059375E-16 ) ) ;
#204 = CC_DESIGN_APPROVAL ( #84, ( #49 ) ) ;
#205 = CIRCLE ( 'NONE', #28, 1.000000000000000000 ) ;
#206 = FACE_OUTER_BOUND ( 'NONE', #186, .T. ) ;
#207 = ADVANCED_BREP_SHAPE_REPRESENTATION ( '977833', ( #163, #87, #120 ), #223 ) ;
#208 = DIRECTION ( 'NONE',  ( 4.275831445896959482E-31, 1.000000000000000000, 1.224646799147353207E-16 ) ) ;
#209 = DESIGN_CONTEXT ( 'detailed design', #141, 'design' ) ;
#210 = CARTESIAN_POINT ( 'NONE',  ( -1.499999999999983347, 0.000000000000000000, 4.783882181415012980 ) ) ;
#211 = LOCAL_TIME ( 16, 37, 56.00000000000000000, #41 ) ;
#212 = DIRECTION ( 'NONE',  ( -4.275831445896958607E-31, -1.000000000000000000, -1.224646799147353207E-16 ) ) ;
#213 = AXIS2_PLACEMENT_3D ( 'NONE', #30, #89, #76 ) ;
#214 = DIRECTION ( 'NONE',  ( 3.491481338843133355E-15, -0.000000000000000000, 1.000000000000000000 ) ) ;
#215 = CYLINDRICAL_SURFACE ( 'NONE', #35, 1.500000000000000000 ) ;
#216 = EDGE_LOOP ( 'NONE', ( #178 ) ) ;
#217 = DATE_AND_TIME ( #13, #77 ) ;
#218 = ORIENTED_EDGE ( 'NONE', *, *, #50, .F. ) ;
#219 = ADVANCED_FACE ( 'NONE', ( #174 ), #122, .T. ) ;
#220 = APPROVAL ( #146, 'UNSPECIFIED' ) ;
#221 = EDGE_LOOP ( 'NONE', ( #12 ) ) ;
#222 = PERSON_AND_ORGANIZATION ( #4, #83 ) ;
#223 =( GEOMETRIC_REPRESENTATION_CONTEXT ( 3 ) GLOBAL_UNCERTAINTY_ASSIGNED_CONTEXT ( ( #142 ) ) GLOBAL_UNIT_ASSIGNED_CONTEXT ( ( #74, #175, #20 ) ) REPRESENTATION_CONTEXT ( 'NONE', 'WORKASPACE' ) );
ENDSEC;
END-ISO-10303-21;
