ISO-10303-21;
HEADER;
FILE_DESCRIPTION (( 'STEP AP203' ),
    '1' );
FILE_NAME ('977832.step',
    '2023-02-01T15:37:55',
    ( '' ),
    ( '' ),
    'SwSTEP 2.0',
    'SolidWorks 2019',
    '' );
FILE_SCHEMA (( 'CONFIG_CONTROL_DESIGN' ));
ENDSEC;

DATA;
#1 = ADVANCED_FACE ( 'NONE', ( #138 ), #179, .F. ) ;
#2 = AXIS2_PLACEMENT_3D ( 'NONE', #114, #195, #95 ) ;
#3 = EDGE_LOOP ( 'NONE', ( #140 ) ) ;
#4 = CC_DESIGN_PERSON_AND_ORGANIZATION_ASSIGNMENT ( #66, #145, ( #219 ) ) ;
#5 = AXIS2_PLACEMENT_3D ( 'NONE', #39, #131, #200 ) ;
#6 = CARTESIAN_POINT ( 'NONE',  ( 1.681164733771318358E-14, 0.000000000000000000, 4.815047169429681695 ) ) ;
#7 = DIRECTION ( 'NONE',  ( 3.491481338843133355E-15, -0.000000000000000000, 1.000000000000000000 ) ) ;
#8 = DIRECTION ( 'NONE',  ( 1.000000000000000000, 0.000000000000000000, -3.491481338843133355E-15 ) ) ;
#9 = DIRECTION ( 'NONE',  ( -3.491481338843133355E-15, 1.224646799147353207E-16, -1.000000000000000000 ) ) ;
#10 = CALENDAR_DATE ( 2023, 1, 2 ) ;
#11 = CARTESIAN_POINT ( 'NONE',  ( -1.499999999999983125, 0.000000000000000000, 4.815047169429687024 ) ) ;
#12 = DATE_AND_TIME ( #86, #83 ) ;
#13 = MANIFOLD_SOLID_BREP ( 'Corps-Déplacer/Copier1[1]', #35 ) ;
#14 = COORDINATED_UNIVERSAL_TIME_OFFSET ( 1, 0, .AHEAD. ) ;
#15 = PERSON_AND_ORGANIZATION ( #42, #166 ) ;
#16 = TOROIDAL_SURFACE ( 'NONE', #185, 8.949999999999999289, 8.000000000000000000 ) ;
#17 = COORDINATED_UNIVERSAL_TIME_OFFSET ( 1, 0, .AHEAD. ) ;
#18 = CC_DESIGN_SECURITY_CLASSIFICATION ( #219, ( #104 ) ) ;
#19 = EDGE_LOOP ( 'NONE', ( #57 ) ) ;
#20 = DIRECTION ( 'NONE',  ( -3.491481338843133355E-15, 1.224646799147353207E-16, -1.000000000000000000 ) ) ;
#21 = ORIENTED_EDGE ( 'NONE', *, *, #147, .T. ) ;
#22 = CYLINDRICAL_SURFACE ( 'NONE', #56, 1.500000000000000000 ) ;
#23 = DIRECTION ( 'NONE',  ( -1.000000000000000000, 0.000000000000000000, 3.469446951953614189E-15 ) ) ;
#24 = CIRCLE ( 'NONE', #36, 0.9499999999999998446 ) ;
#25 = CARTESIAN_POINT ( 'NONE',  ( -1.282749433769087582E-30, 0.000000000000000000, -3.673940397442059375E-16 ) ) ;
#26 = FACE_OUTER_BOUND ( 'NONE', #54, .T. ) ;
#27 = DIRECTION ( 'NONE',  ( 3.491481338843133355E-15, -0.000000000000000000, 1.000000000000000000 ) ) ;
#28 = CIRCLE ( 'NONE', #55, 0.9499999999999995115 ) ;
#29 = PERSON_AND_ORGANIZATION_ROLE ( 'design_supplier' ) ;
#30 = DIRECTION ( 'NONE',  ( 1.000000000000000000, 0.000000000000000000, 0.000000000000000000 ) ) ;
#31 = DATE_AND_TIME ( #10, #110 ) ;
#32 = PERSON_AND_ORGANIZATION_ROLE ( 'design_owner' ) ;
#33 = APPROVAL_ROLE ( '' ) ;
#34 = PRODUCT ( '977832', '977832', '', ( #85 ) ) ;
#35 = CLOSED_SHELL ( 'NONE', ( #124, #105, #1, #196, #192 ) ) ;
#36 = AXIS2_PLACEMENT_3D ( 'NONE', #25, #27, #8 ) ;
#37 = ORIENTED_EDGE ( 'NONE', *, *, #58, .F. ) ;
#38 = CARTESIAN_POINT ( 'NONE',  ( 1.326762908760390423E-13, -4.653657836759941941E-15, 38.00000000000000000 ) ) ;
#39 = CARTESIAN_POINT ( 'NONE',  ( 1.316288464743861212E-13, -4.616918432785521081E-15, 37.69999999999999574 ) ) ;
#40 = APPROVAL ( #51, 'UNSPECIFIED' ) ;
#41 = DIRECTION ( 'NONE',  ( 4.275831445896959482E-31, 1.000000000000000000, 1.224646799147353207E-16 ) ) ;
#42 = PERSON ( 'UNSPECIFIED', 'UNSPECIFIED', 'UNSPECIFIED', ('UNSPECIFIED'), ('UNSPECIFIED'), ('UNSPECIFIED') ) ;
#43 = DIRECTION ( 'NONE',  ( 1.000000000000000000, 0.000000000000000000, -3.423796334164752505E-15 ) ) ;
#44 = CARTESIAN_POINT ( 'NONE',  ( 6.633814543801952586E-15, -2.746645503629943744E-16, 1.899999999999999689 ) ) ;
#45 = FACE_OUTER_BOUND ( 'NONE', #91, .T. ) ;
#46 = EDGE_CURVE ( 'NONE', #143, #143, #183, .T. ) ;
#47 = AXIS2_PLACEMENT_3D ( 'NONE', #38, #62, #100 ) ;
#48 = APPLICATION_PROTOCOL_DEFINITION ( 'international standard', 'config_control_design', 1994, #74 ) ;
#49 = PERSON_AND_ORGANIZATION ( #42, #166 ) ;
#50 = APPROVAL ( #117, 'UNSPECIFIED' ) ;
#51 = APPROVAL_STATUS ( 'not_yet_approved' ) ;
#52 = APPROVAL_STATUS ( 'not_yet_approved' ) ;
#53 = PERSON_AND_ORGANIZATION ( #42, #166 ) ;
#54 = EDGE_LOOP ( 'NONE', ( #59 ) ) ;
#55 = AXIS2_PLACEMENT_3D ( 'NONE', #160, #198, #43 ) ;
#56 = AXIS2_PLACEMENT_3D ( 'NONE', #216, #9, #41 ) ;
#57 = ORIENTED_EDGE ( 'NONE', *, *, #156, .T. ) ;
#58 = EDGE_CURVE ( 'NONE', #164, #164, #101, .T. ) ;
#59 = ORIENTED_EDGE ( 'NONE', *, *, #156, .F. ) ;
#60 = UNCERTAINTY_MEASURE_WITH_UNIT (LENGTH_MEASURE( 1.000000000000000082E-05 ), #168, 'distance_accuracy_value', 'NONE');
#61 = CIRCLE ( 'NONE', #88, 0.9499999999999995115 ) ;
#62 = DIRECTION ( 'NONE',  ( -3.491481338843133355E-15, 1.224646799147353207E-16, -1.000000000000000000 ) ) ;
#63 = FACE_OUTER_BOUND ( 'NONE', #77, .T. ) ;
#64 = FACE_OUTER_BOUND ( 'NONE', #211, .T. ) ;
#65 = CARTESIAN_POINT ( 'NONE',  ( -3.206873584422719393E-31, 1.124819836996393206E-32, -9.184850993605149670E-17 ) ) ;
#66 = PERSON_AND_ORGANIZATION ( #42, #166 ) ;
#67 = FACE_OUTER_BOUND ( 'NONE', #75, .T. ) ;
#68 = VERTEX_POINT ( 'NONE', #87 ) ;
#69 = LOCAL_TIME ( 16, 37, 55.00000000000000000, #14 ) ;
#70 = PERSON_AND_ORGANIZATION ( #42, #166 ) ;
#71 = APPLICATION_CONTEXT ( 'configuration controlled 3d designs of mechanical parts and assemblies' ) ;
#72 = APPROVAL_DATE_TIME ( #191, #50 ) ;
#73 = EDGE_LOOP ( 'NONE', ( #177 ) ) ;
#74 = APPLICATION_CONTEXT ( 'configuration controlled 3d designs of mechanical parts and assemblies' ) ;
#75 = EDGE_LOOP ( 'NONE', ( #109 ) ) ;
#76 = CC_DESIGN_APPROVAL ( #50, ( #126 ) ) ;
#77 = EDGE_LOOP ( 'NONE', ( #21 ) ) ;
#78 = DIRECTION ( 'NONE',  ( 3.491481338843133355E-15, -0.000000000000000000, 1.000000000000000000 ) ) ;
#79 = ADVANCED_FACE ( 'NONE', ( #64, #67 ), #162, .T. ) ;
#80 = DIRECTION ( 'NONE',  ( 3.491481338843133355E-15, -1.224646799147353207E-16, 1.000000000000000000 ) ) ;
#81 = DIRECTION ( 'NONE',  ( 1.000000000000000000, 0.000000000000000000, -3.491481338843133355E-15 ) ) ;
#82 = CARTESIAN_POINT ( 'NONE',  ( 1.316288464743861212E-13, 1.499999999999995337, 37.69999999999999574 ) ) ;
#83 = LOCAL_TIME ( 16, 37, 55.00000000000000000, #207 ) ;
#84 = VERTEX_POINT ( 'NONE', #204 ) ;
#85 = MECHANICAL_CONTEXT ( 'NONE', #71, 'mechanical' ) ;
#86 = CALENDAR_DATE ( 2023, 1, 2 ) ;
#87 = CARTESIAN_POINT ( 'NONE',  ( 0.9499999999999998446, 0.000000000000000000, -3.684301311645182132E-15 ) ) ;
#88 = AXIS2_PLACEMENT_3D ( 'NONE', #186, #7, #129 ) ;
#89 = CALENDAR_DATE ( 2023, 1, 2 ) ;
#90 = LOCAL_TIME ( 16, 37, 55.00000000000000000, #17 ) ;
#91 = EDGE_LOOP ( 'NONE', ( #107 ) ) ;
#92 = EDGE_LOOP ( 'NONE', ( #213 ) ) ;
#93 = EDGE_LOOP ( 'NONE', ( #37 ) ) ;
#94 = CC_DESIGN_DATE_AND_TIME_ASSIGNMENT ( #31, #205, ( #219 ) ) ;
#95 = DIRECTION ( 'NONE',  ( -4.275831445896958607E-31, -1.000000000000000000, -1.224646799147353207E-16 ) ) ;
#96 = DIRECTION ( 'NONE',  ( -3.491481338843133355E-15, 1.224646799147353207E-16, -1.000000000000000000 ) ) ;
#97 = AXIS2_PLACEMENT_3D ( 'NONE', #127, #128, #111 ) ;
#98 = CARTESIAN_POINT ( 'NONE',  ( 6.633814543801953375E-15, 0.000000000000000000, 1.899999999999999911 ) ) ;
#99 = SHAPE_DEFINITION_REPRESENTATION ( #174, #170 ) ;
#100 = DIRECTION ( 'NONE',  ( 0.000000000000000000, 1.000000000000000000, 0.000000000000000000 ) ) ;
#101 = CIRCLE ( 'NONE', #97, 1.499999999999999778 ) ;
#102 = APPLICATION_PROTOCOL_DEFINITION ( 'international standard', 'config_control_design', 1994, #71 ) ;
#103 =( NAMED_UNIT ( * ) SI_UNIT ( $, .STERADIAN. ) SOLID_ANGLE_UNIT ( ) );
#104 = PRODUCT_DEFINITION_FORMATION_WITH_SPECIFIED_SOURCE ( 'ANY', '', #34, .NOT_KNOWN. ) ;
#105 = ADVANCED_FACE ( 'NONE', ( #141, #112 ), #175, .T. ) ;
#106 = CC_DESIGN_PERSON_AND_ORGANIZATION_ASSIGNMENT ( #223, #32, ( #34 ) ) ;
#107 = ORIENTED_EDGE ( 'NONE', *, *, #180, .T. ) ;
#108 = ADVANCED_FACE ( 'NONE', ( #45 ), #220, .T. ) ;
#109 = ORIENTED_EDGE ( 'NONE', *, *, #180, .F. ) ;
#110 = LOCAL_TIME ( 16, 37, 55.00000000000000000, #119 ) ;
#111 = DIRECTION ( 'NONE',  ( 0.000000000000000000, 1.000000000000000000, 0.000000000000000000 ) ) ;
#112 = FACE_OUTER_BOUND ( 'NONE', #93, .T. ) ;
#113 = FACE_OUTER_BOUND ( 'NONE', #3, .T. ) ;
#114 = CARTESIAN_POINT ( 'NONE',  ( 6.633814543801952586E-15, -2.746645503629943744E-16, 1.899999999999999689 ) ) ;
#115 = DIRECTION ( 'NONE',  ( 3.491481338843133355E-15, -0.000000000000000000, 1.000000000000000000 ) ) ;
#116 = APPROVAL_PERSON_ORGANIZATION ( #15, #206, #33 ) ;
#117 = APPROVAL_STATUS ( 'not_yet_approved' ) ;
#118 = PERSON_AND_ORGANIZATION ( #42, #166 ) ;
#119 = COORDINATED_UNIVERSAL_TIME_OFFSET ( 1, 0, .AHEAD. ) ;
#120 = PERSON_AND_ORGANIZATION_ROLE ( 'creator' ) ;
#121 = DATE_AND_TIME ( #132, #158 ) ;
#122 = APPROVAL_PERSON_ORGANIZATION ( #49, #40, #171 ) ;
#123 = ORIENTED_EDGE ( 'NONE', *, *, #221, .F. ) ;
#124 = ADVANCED_FACE ( 'NONE', ( #113, #182 ), #22, .T. ) ;
#125 = AXIS2_PLACEMENT_3D ( 'NONE', #209, #20, #159 ) ;
#126 = PRODUCT_DEFINITION ( 'UNKNOWN', '', #104, #214 ) ;
#127 = CARTESIAN_POINT ( 'NONE',  ( 1.316288464743861212E-13, -4.616918432785521081E-15, 37.69999999999999574 ) ) ;
#128 = DIRECTION ( 'NONE',  ( -3.491481338843133355E-15, 1.224646799147353207E-16, -1.000000000000000000 ) ) ;
#129 = DIRECTION ( 'NONE',  ( 1.000000000000000000, 0.000000000000000000, -3.423796334164752505E-15 ) ) ;
#130 = CC_DESIGN_APPROVAL ( #40, ( #104 ) ) ;
#131 = DIRECTION ( 'NONE',  ( -3.491481338843133355E-15, 1.224646799147353207E-16, -1.000000000000000000 ) ) ;
#132 = CALENDAR_DATE ( 2023, 1, 2 ) ;
#133 = SECURITY_CLASSIFICATION_LEVEL ( 'unclassified' ) ;
#134 = CIRCLE ( 'NONE', #154, 1.500000000000000000 ) ;
#135 =( NAMED_UNIT ( * ) PLANE_ANGLE_UNIT ( ) SI_UNIT ( $, .RADIAN. ) );
#136 = APPROVAL_DATE_TIME ( #152, #40 ) ;
#137 = CALENDAR_DATE ( 2023, 1, 2 ) ;
#138 = FACE_OUTER_BOUND ( 'NONE', #194, .T. ) ;
#139 = AXIS2_PLACEMENT_3D ( 'NONE', #181, #222, #81 ) ;
#140 = ORIENTED_EDGE ( 'NONE', *, *, #58, .T. ) ;
#141 = FACE_BOUND ( 'NONE', #92, .T. ) ;
#142 = DIRECTION ( 'NONE',  ( -4.275831445896958607E-31, -1.000000000000000000, -1.224646799147353207E-16 ) ) ;
#143 = VERTEX_POINT ( 'NONE', #218 ) ;
#144 = VERTEX_POINT ( 'NONE', #187 ) ;
#145 = PERSON_AND_ORGANIZATION_ROLE ( 'classification_officer' ) ;
#146 = FACE_OUTER_BOUND ( 'NONE', #73, .T. ) ;
#147 = EDGE_CURVE ( 'NONE', #144, #144, #28, .T. ) ;
#148 = DATE_TIME_ROLE ( 'creation_date' ) ;
#149 = PERSON_AND_ORGANIZATION ( #42, #166 ) ;
#150 = CLOSED_SHELL ( 'NONE', ( #108, #79, #176 ) ) ;
#151 = CC_DESIGN_PERSON_AND_ORGANIZATION_ASSIGNMENT ( #53, #120, ( #104 ) ) ;
#152 = DATE_AND_TIME ( #89, #90 ) ;
#153 = COORDINATED_UNIVERSAL_TIME_OFFSET ( 1, 0, .AHEAD. ) ;
#154 = AXIS2_PLACEMENT_3D ( 'NONE', #6, #78, #23 ) ;
#155 = ORIENTED_EDGE ( 'NONE', *, *, #46, .F. ) ;
#156 = EDGE_CURVE ( 'NONE', #165, #165, #134, .T. ) ;
#157 = EDGE_LOOP ( 'NONE', ( #123 ) ) ;
#158 = LOCAL_TIME ( 16, 37, 55.00000000000000000, #153 ) ;
#159 = DIRECTION ( 'NONE',  ( 4.275831445896958607E-31, 1.000000000000000000, 1.224646799147353207E-16 ) ) ;
#160 = CARTESIAN_POINT ( 'NONE',  ( 6.633814543801949431E-15, 0.000000000000000000, 1.899999999999999023 ) ) ;
#161 = CC_DESIGN_PERSON_AND_ORGANIZATION_ASSIGNMENT ( #118, #173, ( #126 ) ) ;
#162 = CYLINDRICAL_SURFACE ( 'NONE', #139, 0.9499999999999996225 ) ;
#163 = DIRECTION ( 'NONE',  ( 1.000000000000000000, 0.000000000000000000, -3.491481338843133750E-15 ) ) ;
#164 = VERTEX_POINT ( 'NONE', #82 ) ;
#165 = VERTEX_POINT ( 'NONE', #11 ) ;
#166 = ORGANIZATION ( 'UNSPECIFIED', 'UNSPECIFIED', '' ) ;
#167 = MANIFOLD_SOLID_BREP ( 'Corps-Déplacer/Copier1[2]', #150 ) ;
#168 =( LENGTH_UNIT ( ) NAMED_UNIT ( * ) SI_UNIT ( .MILLI., .METRE. ) );
#169 = CC_DESIGN_DATE_AND_TIME_ASSIGNMENT ( #12, #148, ( #126 ) ) ;
#170 = ADVANCED_BREP_SHAPE_REPRESENTATION ( '977832', ( #13, #167, #203 ), #212 ) ;
#171 = APPROVAL_ROLE ( '' ) ;
#172 = APPROVAL_PERSON_ORGANIZATION ( #149, #50, #189 ) ;
#173 = PERSON_AND_ORGANIZATION_ROLE ( 'creator' ) ;
#174 = PRODUCT_DEFINITION_SHAPE ( 'NONE', 'NONE',  #126 ) ;
#175 = CONICAL_SURFACE ( 'NONE', #5, 1.499999999999999778, 0.7853981633974453924 ) ;
#176 = ADVANCED_FACE ( 'NONE', ( #197 ), #217, .T. ) ;
#177 = ORIENTED_EDGE ( 'NONE', *, *, #147, .F. ) ;
#178 = CC_DESIGN_PERSON_AND_ORGANIZATION_ASSIGNMENT ( #70, #29, ( #104 ) ) ;
#179 = PLANE ( 'NONE',  #125 ) ;
#180 = EDGE_CURVE ( 'NONE', #84, #84, #61, .T. ) ;
#181 = CARTESIAN_POINT ( 'NONE',  ( 0.000000000000000000, 0.000000000000000000, 0.000000000000000000 ) ) ;
#182 = FACE_OUTER_BOUND ( 'NONE', #19, .T. ) ;
#183 = CIRCLE ( 'NONE', #47, 1.199999999999999956 ) ;
#184 = DIRECTION ( 'NONE',  ( 4.275831445896958607E-31, 1.000000000000000000, 1.224646799147353207E-16 ) ) ;
#185 = AXIS2_PLACEMENT_3D ( 'NONE', #98, #115, #163 ) ;
#186 = CARTESIAN_POINT ( 'NONE',  ( 6.633814543801949431E-15, 0.000000000000000000, 1.899999999999999023 ) ) ;
#187 = CARTESIAN_POINT ( 'NONE',  ( 0.9500000000000060618, 0.000000000000000000, 1.899999999999995692 ) ) ;
#188 = DIRECTION ( 'NONE',  ( 0.000000000000000000, 0.000000000000000000, 1.000000000000000000 ) ) ;
#189 = APPROVAL_ROLE ( '' ) ;
#190 = APPROVAL_DATE_TIME ( #121, #206 ) ;
#191 = DATE_AND_TIME ( #137, #69 ) ;
#192 = ADVANCED_FACE ( 'NONE', ( #146 ), #201, .F. ) ;
#193 = CC_DESIGN_APPROVAL ( #206, ( #219 ) ) ;
#194 = EDGE_LOOP ( 'NONE', ( #155 ) ) ;
#195 = DIRECTION ( 'NONE',  ( 3.491481338843133355E-15, -1.224646799147353207E-16, 1.000000000000000000 ) ) ;
#196 = ADVANCED_FACE ( 'NONE', ( #26, #63 ), #16, .F. ) ;
#197 = FACE_OUTER_BOUND ( 'NONE', #157, .T. ) ;
#198 = DIRECTION ( 'NONE',  ( 3.491481338843133355E-15, -0.000000000000000000, 1.000000000000000000 ) ) ;
#199 = AXIS2_PLACEMENT_3D ( 'NONE', #44, #80, #142 ) ;
#200 = DIRECTION ( 'NONE',  ( 0.000000000000000000, 1.000000000000000000, 0.000000000000000000 ) ) ;
#201 = PLANE ( 'NONE',  #199 ) ;
#202 = CARTESIAN_POINT ( 'NONE',  ( 0.000000000000000000, 0.000000000000000000, 0.000000000000000000 ) ) ;
#203 = AXIS2_PLACEMENT_3D ( 'NONE', #202, #188, #30 ) ;
#204 = CARTESIAN_POINT ( 'NONE',  ( 0.9500000000000060618, 0.000000000000000000, 1.899999999999995692 ) ) ;
#205 = DATE_TIME_ROLE ( 'classification_date' ) ;
#206 = APPROVAL ( #52, 'UNSPECIFIED' ) ;
#207 = COORDINATED_UNIVERSAL_TIME_OFFSET ( 1, 0, .AHEAD. ) ;
#208 = AXIS2_PLACEMENT_3D ( 'NONE', #65, #96, #184 ) ;
#209 = CARTESIAN_POINT ( 'NONE',  ( 1.326762908760390423E-13, 8.998558695971077224E-33, 38.00000000000000000 ) ) ;
#210 = PRODUCT_RELATED_PRODUCT_CATEGORY ( 'detail', '', ( #34 ) ) ;
#211 = EDGE_LOOP ( 'NONE', ( #215 ) ) ;
#212 =( GEOMETRIC_REPRESENTATION_CONTEXT ( 3 ) GLOBAL_UNCERTAINTY_ASSIGNED_CONTEXT ( ( #60 ) ) GLOBAL_UNIT_ASSIGNED_CONTEXT ( ( #168, #135, #103 ) ) REPRESENTATION_CONTEXT ( 'NONE', 'WORKASPACE' ) );
#213 = ORIENTED_EDGE ( 'NONE', *, *, #46, .T. ) ;
#214 = DESIGN_CONTEXT ( 'detailed design', #74, 'design' ) ;
#215 = ORIENTED_EDGE ( 'NONE', *, *, #221, .T. ) ;
#216 = CARTESIAN_POINT ( 'NONE',  ( 0.000000000000000000, 0.000000000000000000, 0.000000000000000000 ) ) ;
#217 = PLANE ( 'NONE',  #208 ) ;
#218 = CARTESIAN_POINT ( 'NONE',  ( 1.326762908760390423E-13, 1.199999999999995293, 38.00000000000000000 ) ) ;
#219 = SECURITY_CLASSIFICATION ( '', '', #133 ) ;
#220 = PLANE ( 'NONE',  #2 ) ;
#221 = EDGE_CURVE ( 'NONE', #68, #68, #24, .T. ) ;
#222 = DIRECTION ( 'NONE',  ( 3.491481338843133355E-15, -0.000000000000000000, 1.000000000000000000 ) ) ;
#223 = PERSON_AND_ORGANIZATION ( #42, #166 ) ;
ENDSEC;
END-ISO-10303-21;
