ISO-10303-21;
HEADER;
FILE_DESCRIPTION (( 'STEP AP203' ),
    '1' );
FILE_NAME ('977831.step',
    '2023-02-01T15:37:55',
    ( '' ),
    ( '' ),
    'SwSTEP 2.0',
    'SolidWorks 2019',
    '' );
FILE_SCHEMA (( 'CONFIG_CONTROL_DESIGN' ));
ENDSEC;

DATA;
#1 = PERSON_AND_ORGANIZATION ( #18, #105 ) ;
#2 = CC_DESIGN_PERSON_AND_ORGANIZATION_ASSIGNMENT ( #149, #130, ( #123 ) ) ;
#3 = DIRECTION ( 'NONE',  ( 4.275831445896959482E-31, 1.000000000000000000, 1.224646799147353207E-16 ) ) ;
#4 = EDGE_LOOP ( 'NONE', ( #107 ) ) ;
#5 = ADVANCED_FACE ( 'NONE', ( #158, #33 ), #36, .T. ) ;
#6 = LOCAL_TIME ( 16, 37, 55.00000000000000000, #68 ) ;
#7 = ADVANCED_FACE ( 'NONE', ( #71 ), #207, .T. ) ;
#8 = AXIS2_PLACEMENT_3D ( 'NONE', #72, #52, #35 ) ;
#9 = DIRECTION ( 'NONE',  ( -3.491481338843133355E-15, 1.224646799147353207E-16, -1.000000000000000000 ) ) ;
#10 = FACE_OUTER_BOUND ( 'NONE', #120, .T. ) ;
#11 = CARTESIAN_POINT ( 'NONE',  ( 1.326762908760390423E-13, -4.653657836759941941E-15, 38.00000000000000000 ) ) ;
#12 = MANIFOLD_SOLID_BREP ( 'Corps-Déplacer/Copier1[2]', #165 ) ;
#13 = CARTESIAN_POINT ( 'NONE',  ( -3.206873584422719393E-31, 1.124819836996393206E-32, -9.184850993605149670E-17 ) ) ;
#14 = DIRECTION ( 'NONE',  ( 0.000000000000000000, 0.000000000000000000, 1.000000000000000000 ) ) ;
#15 = CIRCLE ( 'NONE', #182, 0.8999999999999998002 ) ;
#16 = CC_DESIGN_DATE_AND_TIME_ASSIGNMENT ( #85, #86, ( #212 ) ) ;
#17 = PERSON_AND_ORGANIZATION ( #18, #105 ) ;
#18 = PERSON ( 'UNSPECIFIED', 'UNSPECIFIED', 'UNSPECIFIED', ('UNSPECIFIED'), ('UNSPECIFIED'), ('UNSPECIFIED') ) ;
#19 = PERSON_AND_ORGANIZATION_ROLE ( 'creator' ) ;
#20 = DIRECTION ( 'NONE',  ( -3.491481338843133355E-15, 1.224646799147353207E-16, -1.000000000000000000 ) ) ;
#21 = PERSON_AND_ORGANIZATION_ROLE ( 'creator' ) ;
#22 = ORIENTED_EDGE ( 'NONE', *, *, #171, .T. ) ;
#23 = DIRECTION ( 'NONE',  ( 3.491481338843133355E-15, -1.224646799147353207E-16, 1.000000000000000000 ) ) ;
#24 = DIRECTION ( 'NONE',  ( 3.491481338843133355E-15, -0.000000000000000000, 1.000000000000000000 ) ) ;
#25 = AXIS2_PLACEMENT_3D ( 'NONE', #91, #9, #128 ) ;
#26 = CARTESIAN_POINT ( 'NONE',  ( -1.282749433769087582E-30, 0.000000000000000000, -3.673940397442059375E-16 ) ) ;
#27 = CARTESIAN_POINT ( 'NONE',  ( 1.326762908760390423E-13, 1.199999999999995293, 38.00000000000000000 ) ) ;
#28 = ADVANCED_FACE ( 'NONE', ( #178 ), #167, .F. ) ;
#29 = CONICAL_SURFACE ( 'NONE', #25, 1.499999999999999778, 0.7853981633974453924 ) ;
#30 = DIRECTION ( 'NONE',  ( 1.000000000000000000, 0.000000000000000000, 0.000000000000000000 ) ) ;
#31 = AXIS2_PLACEMENT_3D ( 'NONE', #189, #110, #145 ) ;
#32 = CALENDAR_DATE ( 2023, 1, 2 ) ;
#33 = FACE_OUTER_BOUND ( 'NONE', #160, .T. ) ;
#34 = APPROVAL_ROLE ( '' ) ;
#35 = DIRECTION ( 'NONE',  ( -4.275831445896958607E-31, -1.000000000000000000, -1.224646799147353207E-16 ) ) ;
#36 = CYLINDRICAL_SURFACE ( 'NONE', #121, 1.500000000000000000 ) ;
#37 = DATE_AND_TIME ( #70, #201 ) ;
#38 = ORIENTED_EDGE ( 'NONE', *, *, #183, .T. ) ;
#39 = ORIENTED_EDGE ( 'NONE', *, *, #218, .F. ) ;
#40 = PLANE ( 'NONE',  #129 ) ;
#41 = TOROIDAL_SURFACE ( 'NONE', #169, 8.900000000000000355, 8.000000000000000000 ) ;
#42 = ORIENTED_EDGE ( 'NONE', *, *, #218, .T. ) ;
#43 = CIRCLE ( 'NONE', #95, 1.500000000000000000 ) ;
#44 = PERSON_AND_ORGANIZATION ( #18, #105 ) ;
#45 =( NAMED_UNIT ( * ) PLANE_ANGLE_UNIT ( ) SI_UNIT ( $, .RADIAN. ) );
#46 = DIRECTION ( 'NONE',  ( 3.491481338843133355E-15, -0.000000000000000000, 1.000000000000000000 ) ) ;
#47 = AXIS2_PLACEMENT_3D ( 'NONE', #13, #170, #64 ) ;
#48 = VERTEX_POINT ( 'NONE', #115 ) ;
#49 = DIRECTION ( 'NONE',  ( -3.491481338843133355E-15, 1.224646799147353207E-16, -1.000000000000000000 ) ) ;
#50 = EDGE_LOOP ( 'NONE', ( #39 ) ) ;
#51 = ADVANCED_FACE ( 'NONE', ( #58, #144 ), #59, .T. ) ;
#52 = DIRECTION ( 'NONE',  ( 3.491481338843133355E-15, -1.224646799147353207E-16, 1.000000000000000000 ) ) ;
#53 = APPROVAL ( #159, 'UNSPECIFIED' ) ;
#54 = APPROVAL_ROLE ( '' ) ;
#55 = CIRCLE ( 'NONE', #66, 1.199999999999999956 ) ;
#56 = DATE_AND_TIME ( #208, #214 ) ;
#57 = ORIENTED_EDGE ( 'NONE', *, *, #199, .T. ) ;
#58 = FACE_OUTER_BOUND ( 'NONE', #173, .T. ) ;
#59 = CYLINDRICAL_SURFACE ( 'NONE', #109, 0.9000000000000000222 ) ;
#60 = PLANE ( 'NONE',  #47 ) ;
#61 = CC_DESIGN_SECURITY_CLASSIFICATION ( #88, ( #188 ) ) ;
#62 = CARTESIAN_POINT ( 'NONE',  ( 1.689785082935020235E-14, 0.000000000000000000, 4.839736830714131521 ) ) ;
#63 = APPLICATION_CONTEXT ( 'configuration controlled 3d designs of mechanical parts and assemblies' ) ;
#64 = DIRECTION ( 'NONE',  ( 4.275831445896958607E-31, 1.000000000000000000, 1.224646799147353207E-16 ) ) ;
#65 = DIRECTION ( 'NONE',  ( 1.000000000000000000, 0.000000000000000000, -3.491481338843133750E-15 ) ) ;
#66 = AXIS2_PLACEMENT_3D ( 'NONE', #11, #49, #187 ) ;
#67 = CARTESIAN_POINT ( 'NONE',  ( -1.499999999999983125, 0.000000000000000000, 4.839736830714136850 ) ) ;
#68 = COORDINATED_UNIVERSAL_TIME_OFFSET ( 1, 0, .AHEAD. ) ;
#69 = PERSON_AND_ORGANIZATION ( #18, #105 ) ;
#70 = CALENDAR_DATE ( 2023, 1, 2 ) ;
#71 = FACE_OUTER_BOUND ( 'NONE', #198, .T. ) ;
#72 = CARTESIAN_POINT ( 'NONE',  ( 6.284666409917640040E-15, -2.602085213965210149E-16, 1.800000000000000044 ) ) ;
#73 = CARTESIAN_POINT ( 'NONE',  ( 6.284666409917640040E-15, 0.000000000000000000, 1.800000000000000044 ) ) ;
#74 = APPROVAL_PERSON_ORGANIZATION ( #44, #190, #221 ) ;
#75 = FACE_BOUND ( 'NONE', #211, .T. ) ;
#76 = DIRECTION ( 'NONE',  ( -4.275831445896958607E-31, -1.000000000000000000, -1.224646799147353207E-16 ) ) ;
#77 = FACE_OUTER_BOUND ( 'NONE', #215, .T. ) ;
#78 = APPROVAL_PERSON_ORGANIZATION ( #1, #196, #54 ) ;
#79 =( NAMED_UNIT ( * ) SI_UNIT ( $, .STERADIAN. ) SOLID_ANGLE_UNIT ( ) );
#80 = VERTEX_POINT ( 'NONE', #27 ) ;
#81 = AXIS2_PLACEMENT_3D ( 'NONE', #98, #205, #220 ) ;
#82 = ADVANCED_FACE ( 'NONE', ( #75, #166 ), #29, .T. ) ;
#83 = APPLICATION_CONTEXT ( 'configuration controlled 3d designs of mechanical parts and assemblies' ) ;
#84 = MECHANICAL_CONTEXT ( 'NONE', #83, 'mechanical' ) ;
#85 = DATE_AND_TIME ( #194, #154 ) ;
#86 = DATE_TIME_ROLE ( 'creation_date' ) ;
#87 = COORDINATED_UNIVERSAL_TIME_OFFSET ( 1, 0, .AHEAD. ) ;
#88 = SECURITY_CLASSIFICATION ( '', '', #141 ) ;
#89 = PERSON_AND_ORGANIZATION ( #18, #105 ) ;
#90 = ADVANCED_BREP_SHAPE_REPRESENTATION ( '977831', ( #164, #12, #127 ), #210 ) ;
#91 = CARTESIAN_POINT ( 'NONE',  ( 1.316288464743861212E-13, -4.616918432785521081E-15, 37.69999999999999574 ) ) ;
#92 = CLOSED_SHELL ( 'NONE', ( #5, #82, #28, #116, #103 ) ) ;
#93 = EDGE_LOOP ( 'NONE', ( #124 ) ) ;
#94 = DIRECTION ( 'NONE',  ( 1.000000000000000000, 0.000000000000000000, -3.491481338843133355E-15 ) ) ;
#95 = AXIS2_PLACEMENT_3D ( 'NONE', #62, #133, #174 ) ;
#96 = UNCERTAINTY_MEASURE_WITH_UNIT (LENGTH_MEASURE( 1.000000000000000082E-05 ), #217, 'distance_accuracy_value', 'NONE');
#97 = CARTESIAN_POINT ( 'NONE',  ( 0.000000000000000000, 0.000000000000000000, 0.000000000000000000 ) ) ;
#98 = CARTESIAN_POINT ( 'NONE',  ( 1.316288464743861212E-13, -4.616918432785521081E-15, 37.69999999999999574 ) ) ;
#99 = CC_DESIGN_APPROVAL ( #190, ( #212 ) ) ;
#100 = DATE_AND_TIME ( #32, #179 ) ;
#101 = PERSON_AND_ORGANIZATION ( #18, #105 ) ;
#102 = APPROVAL_STATUS ( 'not_yet_approved' ) ;
#103 = ADVANCED_FACE ( 'NONE', ( #122 ), #40, .F. ) ;
#104 = CARTESIAN_POINT ( 'NONE',  ( 6.284666409917640040E-15, -2.602085213965210149E-16, 1.800000000000000044 ) ) ;
#105 = ORGANIZATION ( 'UNSPECIFIED', 'UNSPECIFIED', '' ) ;
#106 = CC_DESIGN_PERSON_AND_ORGANIZATION_ASSIGNMENT ( #89, #197, ( #88 ) ) ;
#107 = ORIENTED_EDGE ( 'NONE', *, *, #171, .F. ) ;
#108 = FACE_OUTER_BOUND ( 'NONE', #118, .T. ) ;
#109 = AXIS2_PLACEMENT_3D ( 'NONE', #213, #24, #94 ) ;
#110 = DIRECTION ( 'NONE',  ( -3.491481338843133355E-15, 1.224646799147353207E-16, -1.000000000000000000 ) ) ;
#111 = APPROVAL_STATUS ( 'not_yet_approved' ) ;
#112 = CIRCLE ( 'NONE', #195, 0.9000000000000002442 ) ;
#113 = APPLICATION_PROTOCOL_DEFINITION ( 'international standard', 'config_control_design', 1994, #83 ) ;
#114 = CC_DESIGN_PERSON_AND_ORGANIZATION_ASSIGNMENT ( #101, #19, ( #188 ) ) ;
#115 = CARTESIAN_POINT ( 'NONE',  ( 0.9000000000000060174, 0.000000000000000000, 1.799999999999995826 ) ) ;
#116 = ADVANCED_FACE ( 'NONE', ( #77, #108 ), #41, .F. ) ;
#117 = APPROVAL_DATE_TIME ( #37, #190 ) ;
#118 = EDGE_LOOP ( 'NONE', ( #152 ) ) ;
#119 = CALENDAR_DATE ( 2023, 1, 2 ) ;
#120 = EDGE_LOOP ( 'NONE', ( #163 ) ) ;
#121 = AXIS2_PLACEMENT_3D ( 'NONE', #176, #20, #3 ) ;
#122 = FACE_OUTER_BOUND ( 'NONE', #142, .T. ) ;
#123 = PRODUCT ( '977831', '977831', '', ( #84 ) ) ;
#124 = ORIENTED_EDGE ( 'NONE', *, *, #199, .F. ) ;
#125 = CC_DESIGN_DATE_AND_TIME_ASSIGNMENT ( #56, #139, ( #88 ) ) ;
#126 = DIRECTION ( 'NONE',  ( 1.000000000000000000, 0.000000000000000000, -3.491481338843133750E-15 ) ) ;
#127 = AXIS2_PLACEMENT_3D ( 'NONE', #97, #14, #30 ) ;
#128 = DIRECTION ( 'NONE',  ( 0.000000000000000000, 1.000000000000000000, 0.000000000000000000 ) ) ;
#129 = AXIS2_PLACEMENT_3D ( 'NONE', #104, #23, #76 ) ;
#130 = PERSON_AND_ORGANIZATION_ROLE ( 'design_owner' ) ;
#131 = ADVANCED_FACE ( 'NONE', ( #10 ), #60, .T. ) ;
#132 = CARTESIAN_POINT ( 'NONE',  ( 1.316288464743861212E-13, 1.499999999999995337, 37.69999999999999574 ) ) ;
#133 = DIRECTION ( 'NONE',  ( 3.491481338843133355E-15, -0.000000000000000000, 1.000000000000000000 ) ) ;
#134 = DESIGN_CONTEXT ( 'detailed design', #63, 'design' ) ;
#135 = CIRCLE ( 'NONE', #150, 0.8999999999999998002 ) ;
#136 = DIRECTION ( 'NONE',  ( 1.000000000000000000, 0.000000000000000000, -3.373073425510458853E-15 ) ) ;
#137 = EDGE_LOOP ( 'NONE', ( #57 ) ) ;
#138 = ORIENTED_EDGE ( 'NONE', *, *, #219, .T. ) ;
#139 = DATE_TIME_ROLE ( 'classification_date' ) ;
#140 = ORIENTED_EDGE ( 'NONE', *, *, #185, .F. ) ;
#141 = SECURITY_CLASSIFICATION_LEVEL ( 'unclassified' ) ;
#142 = EDGE_LOOP ( 'NONE', ( #140 ) ) ;
#143 = APPROVAL_PERSON_ORGANIZATION ( #69, #53, #34 ) ;
#144 = FACE_OUTER_BOUND ( 'NONE', #4, .T. ) ;
#145 = DIRECTION ( 'NONE',  ( 4.275831445896958607E-31, 1.000000000000000000, 1.224646799147353207E-16 ) ) ;
#146 = CARTESIAN_POINT ( 'NONE',  ( 0.9000000000000002442, 0.000000000000000000, -3.509727244703027042E-15 ) ) ;
#147 = VERTEX_POINT ( 'NONE', #146 ) ;
#148 = CARTESIAN_POINT ( 'NONE',  ( 6.284666409917636095E-15, 0.000000000000000000, 1.799999999999998934 ) ) ;
#149 = PERSON_AND_ORGANIZATION ( #18, #105 ) ;
#150 = AXIS2_PLACEMENT_3D ( 'NONE', #148, #46, #204 ) ;
#151 = DIRECTION ( 'NONE',  ( 3.491481338843133355E-15, -0.000000000000000000, 1.000000000000000000 ) ) ;
#152 = ORIENTED_EDGE ( 'NONE', *, *, #185, .T. ) ;
#153 = APPROVAL_DATE_TIME ( #100, #53 ) ;
#154 = LOCAL_TIME ( 16, 37, 55.00000000000000000, #209 ) ;
#155 = CIRCLE ( 'NONE', #81, 1.499999999999999778 ) ;
#156 = CC_DESIGN_PERSON_AND_ORGANIZATION_ASSIGNMENT ( #17, #21, ( #212 ) ) ;
#157 = PERSON_AND_ORGANIZATION_ROLE ( 'design_supplier' ) ;
#158 = FACE_OUTER_BOUND ( 'NONE', #137, .T. ) ;
#159 = APPROVAL_STATUS ( 'not_yet_approved' ) ;
#160 = EDGE_LOOP ( 'NONE', ( #138 ) ) ;
#161 = DIRECTION ( 'NONE',  ( 3.491481338843133355E-15, -0.000000000000000000, 1.000000000000000000 ) ) ;
#162 = CC_DESIGN_APPROVAL ( #196, ( #88 ) ) ;
#163 = ORIENTED_EDGE ( 'NONE', *, *, #183, .F. ) ;
#164 = MANIFOLD_SOLID_BREP ( 'Corps-Déplacer/Copier1[1]', #92 ) ;
#165 = CLOSED_SHELL ( 'NONE', ( #7, #51, #131 ) ) ;
#166 = FACE_OUTER_BOUND ( 'NONE', #93, .T. ) ;
#167 = PLANE ( 'NONE',  #31 ) ;
#168 = DIRECTION ( 'NONE',  ( 3.491481338843133355E-15, -0.000000000000000000, 1.000000000000000000 ) ) ;
#169 = AXIS2_PLACEMENT_3D ( 'NONE', #73, #161, #126 ) ;
#170 = DIRECTION ( 'NONE',  ( -3.491481338843133355E-15, 1.224646799147353207E-16, -1.000000000000000000 ) ) ;
#171 = EDGE_CURVE ( 'NONE', #48, #48, #15, .T. ) ;
#172 = VERTEX_POINT ( 'NONE', #191 ) ;
#173 = EDGE_LOOP ( 'NONE', ( #38 ) ) ;
#174 = DIRECTION ( 'NONE',  ( -1.000000000000000000, 0.000000000000000000, 3.469446951953614189E-15 ) ) ;
#175 = COORDINATED_UNIVERSAL_TIME_OFFSET ( 1, 0, .AHEAD. ) ;
#176 = CARTESIAN_POINT ( 'NONE',  ( 0.000000000000000000, 0.000000000000000000, 0.000000000000000000 ) ) ;
#177 = PERSON_AND_ORGANIZATION ( #18, #105 ) ;
#178 = FACE_OUTER_BOUND ( 'NONE', #50, .T. ) ;
#179 = LOCAL_TIME ( 16, 37, 55.00000000000000000, #206 ) ;
#180 = SHAPE_DEFINITION_REPRESENTATION ( #222, #90 ) ;
#181 = ORIENTED_EDGE ( 'NONE', *, *, #219, .F. ) ;
#182 = AXIS2_PLACEMENT_3D ( 'NONE', #186, #151, #136 ) ;
#183 = EDGE_CURVE ( 'NONE', #147, #147, #112, .T. ) ;
#184 = CC_DESIGN_PERSON_AND_ORGANIZATION_ASSIGNMENT ( #177, #157, ( #188 ) ) ;
#185 = EDGE_CURVE ( 'NONE', #172, #172, #135, .T. ) ;
#186 = CARTESIAN_POINT ( 'NONE',  ( 6.284666409917636095E-15, 0.000000000000000000, 1.799999999999998934 ) ) ;
#187 = DIRECTION ( 'NONE',  ( 0.000000000000000000, 1.000000000000000000, 0.000000000000000000 ) ) ;
#188 = PRODUCT_DEFINITION_FORMATION_WITH_SPECIFIED_SOURCE ( 'ANY', '', #123, .NOT_KNOWN. ) ;
#189 = CARTESIAN_POINT ( 'NONE',  ( 1.326762908760390423E-13, 8.998558695971077224E-33, 38.00000000000000000 ) ) ;
#190 = APPROVAL ( #111, 'UNSPECIFIED' ) ;
#191 = CARTESIAN_POINT ( 'NONE',  ( 0.9000000000000060174, 0.000000000000000000, 1.799999999999995826 ) ) ;
#192 = CC_DESIGN_APPROVAL ( #53, ( #188 ) ) ;
#193 = APPROVAL_DATE_TIME ( #223, #196 ) ;
#194 = CALENDAR_DATE ( 2023, 1, 2 ) ;
#195 = AXIS2_PLACEMENT_3D ( 'NONE', #26, #168, #65 ) ;
#196 = APPROVAL ( #102, 'UNSPECIFIED' ) ;
#197 = PERSON_AND_ORGANIZATION_ROLE ( 'classification_officer' ) ;
#198 = EDGE_LOOP ( 'NONE', ( #22 ) ) ;
#199 = EDGE_CURVE ( 'NONE', #216, #216, #155, .T. ) ;
#200 = PRODUCT_RELATED_PRODUCT_CATEGORY ( 'detail', '', ( #123 ) ) ;
#201 = LOCAL_TIME ( 16, 37, 55.00000000000000000, #175 ) ;
#202 = APPLICATION_PROTOCOL_DEFINITION ( 'international standard', 'config_control_design', 1994, #63 ) ;
#203 = VERTEX_POINT ( 'NONE', #67 ) ;
#204 = DIRECTION ( 'NONE',  ( 1.000000000000000000, 0.000000000000000000, -3.373073425510458853E-15 ) ) ;
#205 = DIRECTION ( 'NONE',  ( -3.491481338843133355E-15, 1.224646799147353207E-16, -1.000000000000000000 ) ) ;
#206 = COORDINATED_UNIVERSAL_TIME_OFFSET ( 1, 0, .AHEAD. ) ;
#207 = PLANE ( 'NONE',  #8 ) ;
#208 = CALENDAR_DATE ( 2023, 1, 2 ) ;
#209 = COORDINATED_UNIVERSAL_TIME_OFFSET ( 1, 0, .AHEAD. ) ;
#210 =( GEOMETRIC_REPRESENTATION_CONTEXT ( 3 ) GLOBAL_UNCERTAINTY_ASSIGNED_CONTEXT ( ( #96 ) ) GLOBAL_UNIT_ASSIGNED_CONTEXT ( ( #217, #45, #79 ) ) REPRESENTATION_CONTEXT ( 'NONE', 'WORKASPACE' ) );
#211 = EDGE_LOOP ( 'NONE', ( #42 ) ) ;
#212 = PRODUCT_DEFINITION ( 'UNKNOWN', '', #188, #134 ) ;
#213 = CARTESIAN_POINT ( 'NONE',  ( 0.000000000000000000, 0.000000000000000000, 0.000000000000000000 ) ) ;
#214 = LOCAL_TIME ( 16, 37, 55.00000000000000000, #87 ) ;
#215 = EDGE_LOOP ( 'NONE', ( #181 ) ) ;
#216 = VERTEX_POINT ( 'NONE', #132 ) ;
#217 =( LENGTH_UNIT ( ) NAMED_UNIT ( * ) SI_UNIT ( .MILLI., .METRE. ) );
#218 = EDGE_CURVE ( 'NONE', #80, #80, #55, .T. ) ;
#219 = EDGE_CURVE ( 'NONE', #203, #203, #43, .T. ) ;
#220 = DIRECTION ( 'NONE',  ( 0.000000000000000000, 1.000000000000000000, 0.000000000000000000 ) ) ;
#221 = APPROVAL_ROLE ( '' ) ;
#222 = PRODUCT_DEFINITION_SHAPE ( 'NONE', 'NONE',  #212 ) ;
#223 = DATE_AND_TIME ( #119, #6 ) ;
ENDSEC;
END-ISO-10303-21;
