ISO-10303-21;
HEADER;
FILE_DESCRIPTION (( 'STEP AP203' ),
    '1' );
FILE_NAME ('977830.step',
    '2023-02-01T15:37:54',
    ( '' ),
    ( '' ),
    'SwSTEP 2.0',
    'SolidWorks 2019',
    '' );
FILE_SCHEMA (( 'CONFIG_CONTROL_DESIGN' ));
ENDSEC;

DATA;
#1 = PERSON_AND_ORGANIZATION_ROLE ( 'creator' ) ;
#2 = ADVANCED_FACE ( 'NONE', ( #43, #117 ), #199, .T. ) ;
#3 = SHAPE_DEFINITION_REPRESENTATION ( #195, #65 ) ;
#4 = DATE_AND_TIME ( #129, #118 ) ;
#5 = ADVANCED_FACE ( 'NONE', ( #18, #163 ), #147, .F. ) ;
#6 = DIRECTION ( 'NONE',  ( 0.000000000000000000, 1.000000000000000000, 0.000000000000000000 ) ) ;
#7 = DIRECTION ( 'NONE',  ( 3.491481338843133355E-15, -0.000000000000000000, 1.000000000000000000 ) ) ;
#8 = ORIENTED_EDGE ( 'NONE', *, *, #137, .F. ) ;
#9 = FACE_OUTER_BOUND ( 'NONE', #42, .T. ) ;
#10 = ORIENTED_EDGE ( 'NONE', *, *, #193, .F. ) ;
#11 = ORIENTED_EDGE ( 'NONE', *, *, #176, .F. ) ;
#12 = LOCAL_TIME ( 16, 37, 54.00000000000000000, #73 ) ;
#13 = MECHANICAL_CONTEXT ( 'NONE', #17, 'mechanical' ) ;
#14 = CARTESIAN_POINT ( 'NONE',  ( 0.8500000000000059730, 0.000000000000000000, 1.699999999999995737 ) ) ;
#15 = AXIS2_PLACEMENT_3D ( 'NONE', #167, #7, #83 ) ;
#16 = DIRECTION ( 'NONE',  ( -3.491481338843133355E-15, 1.224646799147353207E-16, -1.000000000000000000 ) ) ;
#17 = APPLICATION_CONTEXT ( 'configuration controlled 3d designs of mechanical parts and assemblies' ) ;
#18 = FACE_OUTER_BOUND ( 'NONE', #215, .T. ) ;
#19 = DATE_TIME_ROLE ( 'classification_date' ) ;
#20 = ADVANCED_FACE ( 'NONE', ( #75 ), #214, .T. ) ;
#21 = APPROVAL_ROLE ( '' ) ;
#22 = CARTESIAN_POINT ( 'NONE',  ( 0.000000000000000000, 0.000000000000000000, 0.000000000000000000 ) ) ;
#23 = DATE_AND_TIME ( #41, #12 ) ;
#24 = CC_DESIGN_PERSON_AND_ORGANIZATION_ASSIGNMENT ( #194, #212, ( #175 ) ) ;
#25 = AXIS2_PLACEMENT_3D ( 'NONE', #22, #45, #80 ) ;
#26 = APPROVAL_PERSON_ORGANIZATION ( #165, #56, #79 ) ;
#27 = DIRECTION ( 'NONE',  ( -4.275831445896958607E-31, -1.000000000000000000, -1.224646799147353207E-16 ) ) ;
#28 = EDGE_LOOP ( 'NONE', ( #157 ) ) ;
#29 = AXIS2_PLACEMENT_3D ( 'NONE', #61, #164, #27 ) ;
#30 =( NAMED_UNIT ( * ) SI_UNIT ( $, .STERADIAN. ) SOLID_ANGLE_UNIT ( ) );
#31 = AXIS2_PLACEMENT_3D ( 'NONE', #211, #130, #97 ) ;
#32 = DIRECTION ( 'NONE',  ( 0.000000000000000000, 1.000000000000000000, 0.000000000000000000 ) ) ;
#33 = PERSON_AND_ORGANIZATION_ROLE ( 'design_owner' ) ;
#34 =( LENGTH_UNIT ( ) NAMED_UNIT ( * ) SI_UNIT ( .MILLI., .METRE. ) );
#35 = AXIS2_PLACEMENT_3D ( 'NONE', #145, #189, #160 ) ;
#36 = CALENDAR_DATE ( 2023, 1, 2 ) ;
#37 = APPROVAL ( #71, 'UNSPECIFIED' ) ;
#38 = ORIENTED_EDGE ( 'NONE', *, *, #182, .T. ) ;
#39 = AXIS2_PLACEMENT_3D ( 'NONE', #205, #92, #169 ) ;
#40 = FACE_OUTER_BOUND ( 'NONE', #85, .T. ) ;
#41 = CALENDAR_DATE ( 2023, 1, 2 ) ;
#42 = EDGE_LOOP ( 'NONE', ( #198 ) ) ;
#43 = FACE_BOUND ( 'NONE', #84, .T. ) ;
#44 = APPROVAL_PERSON_ORGANIZATION ( #112, #168, #21 ) ;
#45 = DIRECTION ( 'NONE',  ( -3.491481338843133355E-15, 1.224646799147353207E-16, -1.000000000000000000 ) ) ;
#46 = ORIENTED_EDGE ( 'NONE', *, *, #176, .T. ) ;
#47 = PRODUCT_RELATED_PRODUCT_CATEGORY ( 'detail', '', ( #153 ) ) ;
#48 = DIRECTION ( 'NONE',  ( 4.275831445896958607E-31, 1.000000000000000000, 1.224646799147353207E-16 ) ) ;
#49 = DIRECTION ( 'NONE',  ( 1.000000000000000000, 0.000000000000000000, -3.491481338843132961E-15 ) ) ;
#50 = APPLICATION_PROTOCOL_DEFINITION ( 'international standard', 'config_control_design', 1994, #17 ) ;
#51 = AXIS2_PLACEMENT_3D ( 'NONE', #132, #158, #49 ) ;
#52 = ADVANCED_FACE ( 'NONE', ( #40, #100 ), #78, .T. ) ;
#53 = CC_DESIGN_SECURITY_CLASSIFICATION ( #184, ( #175 ) ) ;
#54 =( NAMED_UNIT ( * ) PLANE_ANGLE_UNIT ( ) SI_UNIT ( $, .RADIAN. ) );
#55 = PERSON_AND_ORGANIZATION ( #90, #196 ) ;
#56 = APPROVAL ( #161, 'UNSPECIFIED' ) ;
#57 = PLANE ( 'NONE',  #111 ) ;
#58 = APPROVAL_STATUS ( 'not_yet_approved' ) ;
#59 = PERSON_AND_ORGANIZATION_ROLE ( 'classification_officer' ) ;
#60 = COORDINATED_UNIVERSAL_TIME_OFFSET ( 1, 0, .AHEAD. ) ;
#61 = CARTESIAN_POINT ( 'NONE',  ( 5.935518276033325915E-15, -2.457524924300476060E-16, 1.699999999999999734 ) ) ;
#62 = CIRCLE ( 'NONE', #51, 0.8500000000000000888 ) ;
#63 = FACE_OUTER_BOUND ( 'NONE', #156, .T. ) ;
#64 = PRODUCT_DEFINITION ( 'UNKNOWN', '', #175, #125 ) ;
#65 = ADVANCED_BREP_SHAPE_REPRESENTATION ( '977830', ( #104, #101, #209 ), #128 ) ;
#66 = ADVANCED_FACE ( 'NONE', ( #63, #82 ), #155, .T. ) ;
#67 = LOCAL_TIME ( 16, 37, 54.00000000000000000, #213 ) ;
#68 = CARTESIAN_POINT ( 'NONE',  ( 1.316288464743861212E-13, -4.616918432785521081E-15, 37.69999999999999574 ) ) ;
#69 = FACE_OUTER_BOUND ( 'NONE', #154, .T. ) ;
#70 = CARTESIAN_POINT ( 'NONE',  ( 5.935518276033325915E-15, -2.457524924300476060E-16, 1.699999999999999734 ) ) ;
#71 = APPROVAL_STATUS ( 'not_yet_approved' ) ;
#72 = CARTESIAN_POINT ( 'NONE',  ( 1.696412355735787782E-14, 0.000000000000000000, 4.858718094417415756 ) ) ;
#73 = COORDINATED_UNIVERSAL_TIME_OFFSET ( 1, 0, .AHEAD. ) ;
#74 = DATE_AND_TIME ( #99, #67 ) ;
#75 = FACE_OUTER_BOUND ( 'NONE', #28, .T. ) ;
#76 = FACE_OUTER_BOUND ( 'NONE', #149, .T. ) ;
#77 = ORIENTED_EDGE ( 'NONE', *, *, #204, .F. ) ;
#78 = CYLINDRICAL_SURFACE ( 'NONE', #25, 1.500000000000000000 ) ;
#79 = APPROVAL_ROLE ( '' ) ;
#80 = DIRECTION ( 'NONE',  ( 4.275831445896959482E-31, 1.000000000000000000, 1.224646799147353207E-16 ) ) ;
#81 = LOCAL_TIME ( 16, 37, 54.00000000000000000, #151 ) ;
#82 = FACE_OUTER_BOUND ( 'NONE', #120, .T. ) ;
#83 = DIRECTION ( 'NONE',  ( 1.000000000000000000, 0.000000000000000000, -3.491481338843132961E-15 ) ) ;
#84 = EDGE_LOOP ( 'NONE', ( #46 ) ) ;
#85 = EDGE_LOOP ( 'NONE', ( #38 ) ) ;
#86 = CC_DESIGN_APPROVAL ( #168, ( #175 ) ) ;
#87 = EDGE_LOOP ( 'NONE', ( #181 ) ) ;
#88 = AXIS2_PLACEMENT_3D ( 'NONE', #70, #94, #109 ) ;
#89 = ADVANCED_FACE ( 'NONE', ( #9 ), #106, .F. ) ;
#90 = PERSON ( 'UNSPECIFIED', 'UNSPECIFIED', 'UNSPECIFIED', ('UNSPECIFIED'), ('UNSPECIFIED'), ('UNSPECIFIED') ) ;
#91 = LOCAL_TIME ( 16, 37, 54.00000000000000000, #60 ) ;
#92 = DIRECTION ( 'NONE',  ( 3.491481338843133355E-15, -0.000000000000000000, 1.000000000000000000 ) ) ;
#93 = PLANE ( 'NONE',  #95 ) ;
#94 = DIRECTION ( 'NONE',  ( 3.491481338843133355E-15, -1.224646799147353207E-16, 1.000000000000000000 ) ) ;
#95 = AXIS2_PLACEMENT_3D ( 'NONE', #217, #103, #48 ) ;
#96 = DATE_TIME_ROLE ( 'creation_date' ) ;
#97 = DIRECTION ( 'NONE',  ( 1.000000000000000000, 0.000000000000000000, -3.491481338843133750E-15 ) ) ;
#98 = PERSON_AND_ORGANIZATION ( #90, #196 ) ;
#99 = CALENDAR_DATE ( 2023, 1, 2 ) ;
#100 = FACE_OUTER_BOUND ( 'NONE', #218, .T. ) ;
#101 = MANIFOLD_SOLID_BREP ( 'Corps-Déplacer/Copier1[2]', #135 ) ;
#102 = APPROVAL_PERSON_ORGANIZATION ( #107, #37, #110 ) ;
#103 = DIRECTION ( 'NONE',  ( -3.491481338843133355E-15, 1.224646799147353207E-16, -1.000000000000000000 ) ) ;
#104 = MANIFOLD_SOLID_BREP ( 'Corps-Déplacer/Copier1[1]', #200 ) ;
#105 = VERTEX_POINT ( 'NONE', #202 ) ;
#106 = PLANE ( 'NONE',  #88 ) ;
#107 = PERSON_AND_ORGANIZATION ( #90, #196 ) ;
#108 = CC_DESIGN_DATE_AND_TIME_ASSIGNMENT ( #197, #19, ( #184 ) ) ;
#109 = DIRECTION ( 'NONE',  ( -4.275831445896958607E-31, -1.000000000000000000, -1.224646799147353207E-16 ) ) ;
#110 = APPROVAL_ROLE ( '' ) ;
#111 = AXIS2_PLACEMENT_3D ( 'NONE', #141, #16, #220 ) ;
#112 = PERSON_AND_ORGANIZATION ( #90, #196 ) ;
#113 = ADVANCED_FACE ( 'NONE', ( #76 ), #93, .T. ) ;
#114 = ORIENTED_EDGE ( 'NONE', *, *, #182, .F. ) ;
#115 = ORIENTED_EDGE ( 'NONE', *, *, #193, .T. ) ;
#116 = PERSON_AND_ORGANIZATION ( #90, #196 ) ;
#117 = FACE_OUTER_BOUND ( 'NONE', #136, .T. ) ;
#118 = LOCAL_TIME ( 16, 37, 54.00000000000000000, #146 ) ;
#119 = ORIENTED_EDGE ( 'NONE', *, *, #137, .T. ) ;
#120 = EDGE_LOOP ( 'NONE', ( #77 ) ) ;
#121 = CIRCLE ( 'NONE', #39, 0.8500000000000000888 ) ;
#122 = CC_DESIGN_PERSON_AND_ORGANIZATION_ASSIGNMENT ( #116, #208, ( #64 ) ) ;
#123 = CARTESIAN_POINT ( 'NONE',  ( -1.499999999999983125, 0.000000000000000000, 4.858718094417421085 ) ) ;
#124 = APPLICATION_PROTOCOL_DEFINITION ( 'international standard', 'config_control_design', 1994, #138 ) ;
#125 = DESIGN_CONTEXT ( 'detailed design', #138, 'design' ) ;
#126 = DIRECTION ( 'NONE',  ( -3.491481338843133355E-15, 1.224646799147353207E-16, -1.000000000000000000 ) ) ;
#127 = VERTEX_POINT ( 'NONE', #191 ) ;
#128 =( GEOMETRIC_REPRESENTATION_CONTEXT ( 3 ) GLOBAL_UNCERTAINTY_ASSIGNED_CONTEXT ( ( #203 ) ) GLOBAL_UNIT_ASSIGNED_CONTEXT ( ( #34, #54, #30 ) ) REPRESENTATION_CONTEXT ( 'NONE', 'WORKASPACE' ) );
#129 = CALENDAR_DATE ( 2023, 1, 2 ) ;
#130 = DIRECTION ( 'NONE',  ( 3.491481338843133355E-15, -0.000000000000000000, 1.000000000000000000 ) ) ;
#131 = CC_DESIGN_DATE_AND_TIME_ASSIGNMENT ( #134, #96, ( #64 ) ) ;
#132 = CARTESIAN_POINT ( 'NONE',  ( -1.282749433769087582E-30, 0.000000000000000000, -3.673940397442059375E-16 ) ) ;
#133 = CIRCLE ( 'NONE', #172, 1.199999999999999956 ) ;
#134 = DATE_AND_TIME ( #177, #81 ) ;
#135 = CLOSED_SHELL ( 'NONE', ( #20, #66, #113 ) ) ;
#136 = EDGE_LOOP ( 'NONE', ( #114 ) ) ;
#137 = EDGE_CURVE ( 'NONE', #127, #127, #62, .T. ) ;
#138 = APPLICATION_CONTEXT ( 'configuration controlled 3d designs of mechanical parts and assemblies' ) ;
#139 = AXIS2_PLACEMENT_3D ( 'NONE', #68, #126, #32 ) ;
#140 = CARTESIAN_POINT ( 'NONE',  ( 1.316288464743861212E-13, 1.499999999999995337, 37.69999999999999574 ) ) ;
#141 = CARTESIAN_POINT ( 'NONE',  ( 1.326762908760390423E-13, 8.998558695971077224E-33, 38.00000000000000000 ) ) ;
#142 = DIRECTION ( 'NONE',  ( -1.000000000000000000, 0.000000000000000000, 3.469446951953614189E-15 ) ) ;
#143 = CC_DESIGN_APPROVAL ( #56, ( #184 ) ) ;
#144 = DIRECTION ( 'NONE',  ( -3.491481338843133355E-15, 1.224646799147353207E-16, -1.000000000000000000 ) ) ;
#145 = CARTESIAN_POINT ( 'NONE',  ( 5.935518276033322760E-15, 0.000000000000000000, 1.699999999999998845 ) ) ;
#146 = COORDINATED_UNIVERSAL_TIME_OFFSET ( 1, 0, .AHEAD. ) ;
#147 = TOROIDAL_SURFACE ( 'NONE', #31, 8.849999999999999645, 8.000000000000000000 ) ;
#148 = SECURITY_CLASSIFICATION_LEVEL ( 'unclassified' ) ;
#149 = EDGE_LOOP ( 'NONE', ( #8 ) ) ;
#150 = CC_DESIGN_PERSON_AND_ORGANIZATION_ASSIGNMENT ( #162, #1, ( #175 ) ) ;
#151 = COORDINATED_UNIVERSAL_TIME_OFFSET ( 1, 0, .AHEAD. ) ;
#152 = APPROVAL_DATE_TIME ( #23, #37 ) ;
#153 = PRODUCT ( '977830', '977830', '', ( #13 ) ) ;
#154 = EDGE_LOOP ( 'NONE', ( #11 ) ) ;
#155 = CYLINDRICAL_SURFACE ( 'NONE', #15, 0.8500000000000000888 ) ;
#156 = EDGE_LOOP ( 'NONE', ( #119 ) ) ;
#157 = ORIENTED_EDGE ( 'NONE', *, *, #204, .T. ) ;
#158 = DIRECTION ( 'NONE',  ( 3.491481338843133355E-15, -0.000000000000000000, 1.000000000000000000 ) ) ;
#159 = DIRECTION ( 'NONE',  ( 0.000000000000000000, 0.000000000000000000, 1.000000000000000000 ) ) ;
#160 = DIRECTION ( 'NONE',  ( 1.000000000000000000, 0.000000000000000000, -3.571489509364014096E-15 ) ) ;
#161 = APPROVAL_STATUS ( 'not_yet_approved' ) ;
#162 = PERSON_AND_ORGANIZATION ( #90, #196 ) ;
#163 = FACE_OUTER_BOUND ( 'NONE', #87, .T. ) ;
#164 = DIRECTION ( 'NONE',  ( 3.491481338843133355E-15, -1.224646799147353207E-16, 1.000000000000000000 ) ) ;
#165 = PERSON_AND_ORGANIZATION ( #90, #196 ) ;
#166 = CARTESIAN_POINT ( 'NONE',  ( 1.316288464743861212E-13, -4.616918432785521081E-15, 37.69999999999999574 ) ) ;
#167 = CARTESIAN_POINT ( 'NONE',  ( 0.000000000000000000, 0.000000000000000000, 0.000000000000000000 ) ) ;
#168 = APPROVAL ( #58, 'UNSPECIFIED' ) ;
#169 = DIRECTION ( 'NONE',  ( 1.000000000000000000, 0.000000000000000000, -3.571489509364014096E-15 ) ) ;
#170 = DIRECTION ( 'NONE',  ( 3.491481338843133355E-15, -0.000000000000000000, 1.000000000000000000 ) ) ;
#171 = VERTEX_POINT ( 'NONE', #190 ) ;
#172 = AXIS2_PLACEMENT_3D ( 'NONE', #201, #144, #207 ) ;
#173 = DIRECTION ( 'NONE',  ( -3.491481338843133355E-15, 1.224646799147353207E-16, -1.000000000000000000 ) ) ;
#174 = CIRCLE ( 'NONE', #183, 1.500000000000000000 ) ;
#175 = PRODUCT_DEFINITION_FORMATION_WITH_SPECIFIED_SOURCE ( 'ANY', '', #153, .NOT_KNOWN. ) ;
#176 = EDGE_CURVE ( 'NONE', #171, #171, #133, .T. ) ;
#177 = CALENDAR_DATE ( 2023, 1, 2 ) ;
#178 = CC_DESIGN_PERSON_AND_ORGANIZATION_ASSIGNMENT ( #98, #59, ( #184 ) ) ;
#179 = CIRCLE ( 'NONE', #35, 0.8500000000000000888 ) ;
#180 = ADVANCED_FACE ( 'NONE', ( #69 ), #57, .F. ) ;
#181 = ORIENTED_EDGE ( 'NONE', *, *, #219, .T. ) ;
#182 = EDGE_CURVE ( 'NONE', #188, #188, #216, .T. ) ;
#183 = AXIS2_PLACEMENT_3D ( 'NONE', #72, #170, #142 ) ;
#184 = SECURITY_CLASSIFICATION ( '', '', #148 ) ;
#185 = CC_DESIGN_PERSON_AND_ORGANIZATION_ASSIGNMENT ( #55, #33, ( #153 ) ) ;
#186 = VERTEX_POINT ( 'NONE', #123 ) ;
#187 = AXIS2_PLACEMENT_3D ( 'NONE', #166, #173, #6 ) ;
#188 = VERTEX_POINT ( 'NONE', #140 ) ;
#189 = DIRECTION ( 'NONE',  ( 3.491481338843133355E-15, -0.000000000000000000, 1.000000000000000000 ) ) ;
#190 = CARTESIAN_POINT ( 'NONE',  ( 1.326762908760390423E-13, 1.199999999999995293, 38.00000000000000000 ) ) ;
#191 = CARTESIAN_POINT ( 'NONE',  ( 0.8500000000000000888, 0.000000000000000000, -3.335153177760869585E-15 ) ) ;
#192 = APPROVAL_DATE_TIME ( #4, #56 ) ;
#193 = EDGE_CURVE ( 'NONE', #186, #186, #174, .T. ) ;
#194 = PERSON_AND_ORGANIZATION ( #90, #196 ) ;
#195 = PRODUCT_DEFINITION_SHAPE ( 'NONE', 'NONE',  #64 ) ;
#196 = ORGANIZATION ( 'UNSPECIFIED', 'UNSPECIFIED', '' ) ;
#197 = DATE_AND_TIME ( #36, #91 ) ;
#198 = ORIENTED_EDGE ( 'NONE', *, *, #219, .F. ) ;
#199 = CONICAL_SURFACE ( 'NONE', #187, 1.499999999999999778, 0.7853981633974453924 ) ;
#200 = CLOSED_SHELL ( 'NONE', ( #52, #2, #180, #5, #89 ) ) ;
#201 = CARTESIAN_POINT ( 'NONE',  ( 1.326762908760390423E-13, -4.653657836759941941E-15, 38.00000000000000000 ) ) ;
#202 = CARTESIAN_POINT ( 'NONE',  ( 0.8500000000000059730, 0.000000000000000000, 1.699999999999995737 ) ) ;
#203 = UNCERTAINTY_MEASURE_WITH_UNIT (LENGTH_MEASURE( 1.000000000000000082E-05 ), #34, 'distance_accuracy_value', 'NONE');
#204 = EDGE_CURVE ( 'NONE', #222, #222, #121, .T. ) ;
#205 = CARTESIAN_POINT ( 'NONE',  ( 5.935518276033322760E-15, 0.000000000000000000, 1.699999999999998845 ) ) ;
#206 = CARTESIAN_POINT ( 'NONE',  ( 0.000000000000000000, 0.000000000000000000, 0.000000000000000000 ) ) ;
#207 = DIRECTION ( 'NONE',  ( 0.000000000000000000, 1.000000000000000000, 0.000000000000000000 ) ) ;
#208 = PERSON_AND_ORGANIZATION_ROLE ( 'creator' ) ;
#209 = AXIS2_PLACEMENT_3D ( 'NONE', #206, #159, #221 ) ;
#210 = APPROVAL_DATE_TIME ( #74, #168 ) ;
#211 = CARTESIAN_POINT ( 'NONE',  ( 5.935518276033325915E-15, 0.000000000000000000, 1.699999999999999956 ) ) ;
#212 = PERSON_AND_ORGANIZATION_ROLE ( 'design_supplier' ) ;
#213 = COORDINATED_UNIVERSAL_TIME_OFFSET ( 1, 0, .AHEAD. ) ;
#214 = PLANE ( 'NONE',  #29 ) ;
#215 = EDGE_LOOP ( 'NONE', ( #10 ) ) ;
#216 = CIRCLE ( 'NONE', #139, 1.499999999999999778 ) ;
#217 = CARTESIAN_POINT ( 'NONE',  ( -3.206873584422719393E-31, 1.124819836996393206E-32, -9.184850993605149670E-17 ) ) ;
#218 = EDGE_LOOP ( 'NONE', ( #115 ) ) ;
#219 = EDGE_CURVE ( 'NONE', #105, #105, #179, .T. ) ;
#220 = DIRECTION ( 'NONE',  ( 4.275831445896958607E-31, 1.000000000000000000, 1.224646799147353207E-16 ) ) ;
#221 = DIRECTION ( 'NONE',  ( 1.000000000000000000, 0.000000000000000000, 0.000000000000000000 ) ) ;
#222 = VERTEX_POINT ( 'NONE', #14 ) ;
#223 = CC_DESIGN_APPROVAL ( #37, ( #64 ) ) ;
ENDSEC;
END-ISO-10303-21;
