ISO-10303-21;
HEADER;
FILE_DESCRIPTION (( 'STEP AP203' ),
    '1' );
FILE_NAME ('977829.step',
    '2023-02-01T15:37:53',
    ( '' ),
    ( '' ),
    'SwSTEP 2.0',
    'SolidWorks 2019',
    '' );
FILE_SCHEMA (( 'CONFIG_CONTROL_DESIGN' ));
ENDSEC;

DATA;
#1 = EDGE_LOOP ( 'NONE', ( #153 ) ) ;
#2 = DIRECTION ( 'NONE',  ( 1.000000000000000000, 0.000000000000000000, -3.523657060577887833E-15 ) ) ;
#3 = EDGE_LOOP ( 'NONE', ( #185 ) ) ;
#4 = EDGE_CURVE ( 'NONE', #24, #24, #132, .T. ) ;
#5 = DIRECTION ( 'NONE',  ( 1.000000000000000000, 0.000000000000000000, 0.000000000000000000 ) ) ;
#6 = CARTESIAN_POINT ( 'NONE',  ( 5.586370142149010213E-15, 0.000000000000000000, 1.599999999999998979 ) ) ;
#7 = CARTESIAN_POINT ( 'NONE',  ( 0.000000000000000000, 0.000000000000000000, 0.000000000000000000 ) ) ;
#8 = DATE_AND_TIME ( #161, #179 ) ;
#9 = LOCAL_TIME ( 16, 37, 53.00000000000000000, #129 ) ;
#10 = DIRECTION ( 'NONE',  ( 3.491481338843133355E-15, -0.000000000000000000, 1.000000000000000000 ) ) ;
#11 = UNCERTAINTY_MEASURE_WITH_UNIT (LENGTH_MEASURE( 1.000000000000000082E-05 ), #25, 'distance_accuracy_value', 'NONE');
#12 = APPROVAL_ROLE ( '' ) ;
#13 = PERSON_AND_ORGANIZATION ( #158, #30 ) ;
#14 = PERSON_AND_ORGANIZATION_ROLE ( 'creator' ) ;
#15 = ORIENTED_EDGE ( 'NONE', *, *, #4, .F. ) ;
#16 = DIRECTION ( 'NONE',  ( 0.000000000000000000, 1.000000000000000000, 0.000000000000000000 ) ) ;
#17 = APPROVAL ( #211, 'UNSPECIFIED' ) ;
#18 = CLOSED_SHELL ( 'NONE', ( #192, #222, #101 ) ) ;
#19 = CARTESIAN_POINT ( 'NONE',  ( -3.206873584422719393E-31, 1.124819836996393206E-32, -9.184850993605149670E-17 ) ) ;
#20 = MANIFOLD_SOLID_BREP ( 'Corps-Déplacer/Copier1[2]', #18 ) ;
#21 = CC_DESIGN_SECURITY_CLASSIFICATION ( #220, ( #198 ) ) ;
#22 = CARTESIAN_POINT ( 'NONE',  ( 1.316288464743861212E-13, -4.616918432785521081E-15, 37.69999999999999574 ) ) ;
#23 = APPROVAL_ROLE ( '' ) ;
#24 = VERTEX_POINT ( 'NONE', #171 ) ;
#25 =( LENGTH_UNIT ( ) NAMED_UNIT ( * ) SI_UNIT ( .MILLI., .METRE. ) );
#26 = DATE_TIME_ROLE ( 'creation_date' ) ;
#27 = CIRCLE ( 'NONE', #151, 1.199999999999999956 ) ;
#28 = DESIGN_CONTEXT ( 'detailed design', #162, 'design' ) ;
#29 = SHAPE_DEFINITION_REPRESENTATION ( #203, #166 ) ;
#30 = ORGANIZATION ( 'UNSPECIFIED', 'UNSPECIFIED', '' ) ;
#31 = ORIENTED_EDGE ( 'NONE', *, *, #52, .T. ) ;
#32 = DIRECTION ( 'NONE',  ( 3.491481338843133355E-15, -0.000000000000000000, 1.000000000000000000 ) ) ;
#33 = APPROVAL_PERSON_ORGANIZATION ( #213, #17, #23 ) ;
#34 = ORIENTED_EDGE ( 'NONE', *, *, #40, .T. ) ;
#35 = EDGE_LOOP ( 'NONE', ( #31 ) ) ;
#36 = CARTESIAN_POINT ( 'NONE',  ( 0.000000000000000000, 0.000000000000000000, 0.000000000000000000 ) ) ;
#37 = FACE_OUTER_BOUND ( 'NONE', #84, .T. ) ;
#38 = APPROVAL_PERSON_ORGANIZATION ( #149, #155, #199 ) ;
#39 =( NAMED_UNIT ( * ) PLANE_ANGLE_UNIT ( ) SI_UNIT ( $, .RADIAN. ) );
#40 = EDGE_CURVE ( 'NONE', #196, #196, #172, .T. ) ;
#41 = DIRECTION ( 'NONE',  ( -1.000000000000000000, 0.000000000000000000, 3.469446951953614189E-15 ) ) ;
#42 = CLOSED_SHELL ( 'NONE', ( #174, #195, #139, #180, #182 ) ) ;
#43 = PLANE ( 'NONE',  #219 ) ;
#44 = SECURITY_CLASSIFICATION_LEVEL ( 'unclassified' ) ;
#45 = PERSON_AND_ORGANIZATION_ROLE ( 'design_supplier' ) ;
#46 = APPLICATION_CONTEXT ( 'configuration controlled 3d designs of mechanical parts and assemblies' ) ;
#47 = CARTESIAN_POINT ( 'NONE',  ( 5.586370142149013368E-15, -2.312964634635742464E-16, 1.599999999999999867 ) ) ;
#48 = PRODUCT ( '977829', '977829', '', ( #102 ) ) ;
#49 = DIRECTION ( 'NONE',  ( 0.000000000000000000, 1.000000000000000000, 0.000000000000000000 ) ) ;
#50 = AXIS2_PLACEMENT_3D ( 'NONE', #6, #81, #150 ) ;
#51 = LOCAL_TIME ( 16, 37, 53.00000000000000000, #221 ) ;
#52 = EDGE_CURVE ( 'NONE', #154, #154, #147, .T. ) ;
#53 = EDGE_LOOP ( 'NONE', ( #189 ) ) ;
#54 = DIRECTION ( 'NONE',  ( 4.275831445896958607E-31, 1.000000000000000000, 1.224646799147353207E-16 ) ) ;
#55 = ORIENTED_EDGE ( 'NONE', *, *, #126, .F. ) ;
#56 = AXIS2_PLACEMENT_3D ( 'NONE', #194, #10, #41 ) ;
#57 = CARTESIAN_POINT ( 'NONE',  ( 1.316288464743861212E-13, 1.499999999999995337, 37.69999999999999574 ) ) ;
#58 = DIRECTION ( 'NONE',  ( 1.000000000000000000, 0.000000000000000000, -3.491481338843133355E-15 ) ) ;
#59 = AXIS2_PLACEMENT_3D ( 'NONE', #82, #152, #54 ) ;
#60 = FACE_OUTER_BOUND ( 'NONE', #1, .T. ) ;
#61 = EDGE_LOOP ( 'NONE', ( #96 ) ) ;
#62 = APPROVAL_DATE_TIME ( #8, #17 ) ;
#63 = COORDINATED_UNIVERSAL_TIME_OFFSET ( 1, 0, .AHEAD. ) ;
#64 = APPROVAL_DATE_TIME ( #75, #66 ) ;
#65 = TOROIDAL_SURFACE ( 'NONE', #90, 8.800000000000000711, 8.000000000000000000 ) ;
#66 = APPROVAL ( #163, 'UNSPECIFIED' ) ;
#67 = EDGE_LOOP ( 'NONE', ( #170 ) ) ;
#68 = PLANE ( 'NONE',  #223 ) ;
#69 = EDGE_LOOP ( 'NONE', ( #15 ) ) ;
#70 =( GEOMETRIC_REPRESENTATION_CONTEXT ( 3 ) GLOBAL_UNCERTAINTY_ASSIGNED_CONTEXT ( ( #11 ) ) GLOBAL_UNIT_ASSIGNED_CONTEXT ( ( #25, #39, #106 ) ) REPRESENTATION_CONTEXT ( 'NONE', 'WORKASPACE' ) );
#71 = DIRECTION ( 'NONE',  ( -3.491481338843133355E-15, 1.224646799147353207E-16, -1.000000000000000000 ) ) ;
#72 = CARTESIAN_POINT ( 'NONE',  ( 0.7999999999999999334, 0.000000000000000000, -3.160579110818712523E-15 ) ) ;
#73 = FACE_OUTER_BOUND ( 'NONE', #83, .T. ) ;
#74 = DIRECTION ( 'NONE',  ( 3.491481338843133355E-15, -0.000000000000000000, 1.000000000000000000 ) ) ;
#75 = DATE_AND_TIME ( #216, #209 ) ;
#76 = AXIS2_PLACEMENT_3D ( 'NONE', #110, #71, #16 ) ;
#77 = PERSON_AND_ORGANIZATION ( #158, #30 ) ;
#78 = CONICAL_SURFACE ( 'NONE', #208, 1.499999999999999778, 0.7853981633974453924 ) ;
#79 = CC_DESIGN_APPROVAL ( #17, ( #145 ) ) ;
#80 = CC_DESIGN_PERSON_AND_ORGANIZATION_ASSIGNMENT ( #183, #127, ( #145 ) ) ;
#81 = DIRECTION ( 'NONE',  ( 3.491481338843133355E-15, -0.000000000000000000, 1.000000000000000000 ) ) ;
#82 = CARTESIAN_POINT ( 'NONE',  ( 1.326762908760390423E-13, 8.998558695971077224E-33, 38.00000000000000000 ) ) ;
#83 = EDGE_LOOP ( 'NONE', ( #34 ) ) ;
#84 = EDGE_LOOP ( 'NONE', ( #55 ) ) ;
#85 = AXIS2_PLACEMENT_3D ( 'NONE', #114, #136, #2 ) ;
#86 = CC_DESIGN_APPROVAL ( #66, ( #220 ) ) ;
#87 = CARTESIAN_POINT ( 'NONE',  ( 1.326762908760390423E-13, 1.199999999999995293, 38.00000000000000000 ) ) ;
#88 = CC_DESIGN_PERSON_AND_ORGANIZATION_ASSIGNMENT ( #141, #197, ( #48 ) ) ;
#89 = VERTEX_POINT ( 'NONE', #177 ) ;
#90 = AXIS2_PLACEMENT_3D ( 'NONE', #169, #100, #191 ) ;
#91 = CYLINDRICAL_SURFACE ( 'NONE', #202, 0.8000000000000001554 ) ;
#92 = MANIFOLD_SOLID_BREP ( 'Corps-Déplacer/Copier1[1]', #42 ) ;
#93 = CALENDAR_DATE ( 2023, 1, 2 ) ;
#94 = DIRECTION ( 'NONE',  ( 3.491481338843133355E-15, -1.224646799147353207E-16, 1.000000000000000000 ) ) ;
#95 = CC_DESIGN_DATE_AND_TIME_ASSIGNMENT ( #184, #26, ( #145 ) ) ;
#96 = ORIENTED_EDGE ( 'NONE', *, *, #128, .F. ) ;
#97 = FACE_OUTER_BOUND ( 'NONE', #103, .T. ) ;
#98 = EDGE_LOOP ( 'NONE', ( #134 ) ) ;
#99 = DIRECTION ( 'NONE',  ( 1.000000000000000000, 0.000000000000000000, -3.491481338843133750E-15 ) ) ;
#100 = DIRECTION ( 'NONE',  ( 3.491481338843133355E-15, -0.000000000000000000, 1.000000000000000000 ) ) ;
#101 = ADVANCED_FACE ( 'NONE', ( #97 ), #68, .T. ) ;
#102 = MECHANICAL_CONTEXT ( 'NONE', #46, 'mechanical' ) ;
#103 = EDGE_LOOP ( 'NONE', ( #156 ) ) ;
#104 = DIRECTION ( 'NONE',  ( 0.000000000000000000, 1.000000000000000000, 0.000000000000000000 ) ) ;
#105 = CC_DESIGN_PERSON_AND_ORGANIZATION_ASSIGNMENT ( #77, #146, ( #220 ) ) ;
#106 =( NAMED_UNIT ( * ) SI_UNIT ( $, .STERADIAN. ) SOLID_ANGLE_UNIT ( ) );
#107 = VERTEX_POINT ( 'NONE', #87 ) ;
#108 = CARTESIAN_POINT ( 'NONE',  ( 0.8000000000000060396, 0.000000000000000000, 1.599999999999996092 ) ) ;
#109 = DATE_TIME_ROLE ( 'classification_date' ) ;
#110 = CARTESIAN_POINT ( 'NONE',  ( 1.316288464743861212E-13, -4.616918432785521081E-15, 37.69999999999999574 ) ) ;
#111 = CC_DESIGN_PERSON_AND_ORGANIZATION_ASSIGNMENT ( #131, #14, ( #198 ) ) ;
#112 = FACE_OUTER_BOUND ( 'NONE', #98, .T. ) ;
#113 = AXIS2_PLACEMENT_3D ( 'NONE', #123, #140, #121 ) ;
#114 = CARTESIAN_POINT ( 'NONE',  ( 5.586370142149010213E-15, 0.000000000000000000, 1.599999999999998979 ) ) ;
#115 = APPROVAL_PERSON_ORGANIZATION ( #13, #66, #12 ) ;
#116 = ORIENTED_EDGE ( 'NONE', *, *, #4, .T. ) ;
#117 = COORDINATED_UNIVERSAL_TIME_OFFSET ( 1, 0, .AHEAD. ) ;
#118 = CARTESIAN_POINT ( 'NONE',  ( 0.000000000000000000, 0.000000000000000000, 0.000000000000000000 ) ) ;
#119 = CIRCLE ( 'NONE', #76, 1.499999999999999778 ) ;
#120 = DIRECTION ( 'NONE',  ( -3.491481338843133355E-15, 1.224646799147353207E-16, -1.000000000000000000 ) ) ;
#121 = DIRECTION ( 'NONE',  ( -4.275831445896958607E-31, -1.000000000000000000, -1.224646799147353207E-16 ) ) ;
#122 = FACE_OUTER_BOUND ( 'NONE', #167, .T. ) ;
#123 = CARTESIAN_POINT ( 'NONE',  ( 5.586370142149013368E-15, -2.312964634635742464E-16, 1.599999999999999867 ) ) ;
#124 = APPLICATION_PROTOCOL_DEFINITION ( 'international standard', 'config_control_design', 1994, #46 ) ;
#125 = APPROVAL_DATE_TIME ( #165, #155 ) ;
#126 = EDGE_CURVE ( 'NONE', #193, #193, #119, .T. ) ;
#127 = PERSON_AND_ORGANIZATION_ROLE ( 'creator' ) ;
#128 = EDGE_CURVE ( 'NONE', #107, #107, #27, .T. ) ;
#129 = COORDINATED_UNIVERSAL_TIME_OFFSET ( 1, 0, .AHEAD. ) ;
#130 = AXIS2_PLACEMENT_3D ( 'NONE', #133, #32, #99 ) ;
#131 = PERSON_AND_ORGANIZATION ( #158, #30 ) ;
#132 = CIRCLE ( 'NONE', #85, 0.8000000000000003775 ) ;
#133 = CARTESIAN_POINT ( 'NONE',  ( -1.282749433769087582E-30, 0.000000000000000000, -3.673940397442059375E-16 ) ) ;
#134 = ORIENTED_EDGE ( 'NONE', *, *, #126, .T. ) ;
#135 = PLANE ( 'NONE',  #59 ) ;
#136 = DIRECTION ( 'NONE',  ( 3.491481338843133355E-15, -0.000000000000000000, 1.000000000000000000 ) ) ;
#137 = APPLICATION_PROTOCOL_DEFINITION ( 'international standard', 'config_control_design', 1994, #162 ) ;
#138 = DIRECTION ( 'NONE',  ( -3.491481338843133355E-15, 1.224646799147353207E-16, -1.000000000000000000 ) ) ;
#139 = ADVANCED_FACE ( 'NONE', ( #168 ), #135, .F. ) ;
#140 = DIRECTION ( 'NONE',  ( 3.491481338843133355E-15, -1.224646799147353207E-16, 1.000000000000000000 ) ) ;
#141 = PERSON_AND_ORGANIZATION ( #158, #30 ) ;
#142 = PLANE ( 'NONE',  #113 ) ;
#143 = CALENDAR_DATE ( 2023, 1, 2 ) ;
#144 = DATE_AND_TIME ( #93, #157 ) ;
#145 = PRODUCT_DEFINITION ( 'UNKNOWN', '', #198, #28 ) ;
#146 = PERSON_AND_ORGANIZATION_ROLE ( 'classification_officer' ) ;
#147 = CIRCLE ( 'NONE', #130, 0.7999999999999999334 ) ;
#148 = AXIS2_PLACEMENT_3D ( 'NONE', #118, #190, #5 ) ;
#149 = PERSON_AND_ORGANIZATION ( #158, #30 ) ;
#150 = DIRECTION ( 'NONE',  ( 1.000000000000000000, 0.000000000000000000, -3.523657060577887833E-15 ) ) ;
#151 = AXIS2_PLACEMENT_3D ( 'NONE', #186, #138, #49 ) ;
#152 = DIRECTION ( 'NONE',  ( -3.491481338843133355E-15, 1.224646799147353207E-16, -1.000000000000000000 ) ) ;
#153 = ORIENTED_EDGE ( 'NONE', *, *, #40, .F. ) ;
#154 = VERTEX_POINT ( 'NONE', #72 ) ;
#155 = APPROVAL ( #215, 'UNSPECIFIED' ) ;
#156 = ORIENTED_EDGE ( 'NONE', *, *, #52, .F. ) ;
#157 = LOCAL_TIME ( 16, 37, 53.00000000000000000, #63 ) ;
#158 = PERSON ( 'UNSPECIFIED', 'UNSPECIFIED', 'UNSPECIFIED', ('UNSPECIFIED'), ('UNSPECIFIED'), ('UNSPECIFIED') ) ;
#159 = DIRECTION ( 'NONE',  ( -3.491481338843133355E-15, 1.224646799147353207E-16, -1.000000000000000000 ) ) ;
#160 = DIRECTION ( 'NONE',  ( 4.275831445896959482E-31, 1.000000000000000000, 1.224646799147353207E-16 ) ) ;
#161 = CALENDAR_DATE ( 2023, 1, 2 ) ;
#162 = APPLICATION_CONTEXT ( 'configuration controlled 3d designs of mechanical parts and assemblies' ) ;
#163 = APPROVAL_STATUS ( 'not_yet_approved' ) ;
#164 = CC_DESIGN_PERSON_AND_ORGANIZATION_ASSIGNMENT ( #200, #45, ( #198 ) ) ;
#165 = DATE_AND_TIME ( #218, #9 ) ;
#166 = ADVANCED_BREP_SHAPE_REPRESENTATION ( '977829', ( #92, #20, #148 ), #70 ) ;
#167 = EDGE_LOOP ( 'NONE', ( #116 ) ) ;
#168 = FACE_OUTER_BOUND ( 'NONE', #61, .T. ) ;
#169 = CARTESIAN_POINT ( 'NONE',  ( 5.586370142149013368E-15, 0.000000000000000000, 1.600000000000000089 ) ) ;
#170 = ORIENTED_EDGE ( 'NONE', *, *, #205, .T. ) ;
#171 = CARTESIAN_POINT ( 'NONE',  ( 0.8000000000000060396, 0.000000000000000000, 1.599999999999996092 ) ) ;
#172 = CIRCLE ( 'NONE', #50, 0.8000000000000003775 ) ;
#173 = CC_DESIGN_APPROVAL ( #155, ( #198 ) ) ;
#174 = ADVANCED_FACE ( 'NONE', ( #112, #187 ), #206, .T. ) ;
#175 = FACE_BOUND ( 'NONE', #3, .T. ) ;
#176 = CC_DESIGN_DATE_AND_TIME_ASSIGNMENT ( #144, #109, ( #220 ) ) ;
#177 = CARTESIAN_POINT ( 'NONE',  ( -1.499999999999983125, 0.000000000000000000, 4.872613634390717152 ) ) ;
#178 = CIRCLE ( 'NONE', #56, 1.500000000000000000 ) ;
#179 = LOCAL_TIME ( 16, 37, 53.00000000000000000, #117 ) ;
#180 = ADVANCED_FACE ( 'NONE', ( #207, #122 ), #65, .F. ) ;
#181 = COORDINATED_UNIVERSAL_TIME_OFFSET ( 1, 0, .AHEAD. ) ;
#182 = ADVANCED_FACE ( 'NONE', ( #212 ), #43, .F. ) ;
#183 = PERSON_AND_ORGANIZATION ( #158, #30 ) ;
#184 = DATE_AND_TIME ( #143, #51 ) ;
#185 = ORIENTED_EDGE ( 'NONE', *, *, #128, .T. ) ;
#186 = CARTESIAN_POINT ( 'NONE',  ( 1.326762908760390423E-13, -4.653657836759941941E-15, 38.00000000000000000 ) ) ;
#187 = FACE_OUTER_BOUND ( 'NONE', #67, .T. ) ;
#188 = AXIS2_PLACEMENT_3D ( 'NONE', #36, #120, #160 ) ;
#189 = ORIENTED_EDGE ( 'NONE', *, *, #205, .F. ) ;
#190 = DIRECTION ( 'NONE',  ( 0.000000000000000000, 0.000000000000000000, 1.000000000000000000 ) ) ;
#191 = DIRECTION ( 'NONE',  ( 1.000000000000000000, 0.000000000000000000, -3.491481338843133750E-15 ) ) ;
#192 = ADVANCED_FACE ( 'NONE', ( #73 ), #142, .T. ) ;
#193 = VERTEX_POINT ( 'NONE', #57 ) ;
#194 = CARTESIAN_POINT ( 'NONE',  ( 1.701263957586779153E-14, 0.000000000000000000, 4.872613634390712711 ) ) ;
#195 = ADVANCED_FACE ( 'NONE', ( #175, #37 ), #78, .T. ) ;
#196 = VERTEX_POINT ( 'NONE', #108 ) ;
#197 = PERSON_AND_ORGANIZATION_ROLE ( 'design_owner' ) ;
#198 = PRODUCT_DEFINITION_FORMATION_WITH_SPECIFIED_SOURCE ( 'ANY', '', #48, .NOT_KNOWN. ) ;
#199 = APPROVAL_ROLE ( '' ) ;
#200 = PERSON_AND_ORGANIZATION ( #158, #30 ) ;
#201 = PRODUCT_RELATED_PRODUCT_CATEGORY ( 'detail', '', ( #48 ) ) ;
#202 = AXIS2_PLACEMENT_3D ( 'NONE', #7, #74, #58 ) ;
#203 = PRODUCT_DEFINITION_SHAPE ( 'NONE', 'NONE',  #145 ) ;
#204 = DIRECTION ( 'NONE',  ( -3.491481338843133355E-15, 1.224646799147353207E-16, -1.000000000000000000 ) ) ;
#205 = EDGE_CURVE ( 'NONE', #89, #89, #178, .T. ) ;
#206 = CYLINDRICAL_SURFACE ( 'NONE', #188, 1.500000000000000000 ) ;
#207 = FACE_OUTER_BOUND ( 'NONE', #53, .T. ) ;
#208 = AXIS2_PLACEMENT_3D ( 'NONE', #22, #159, #104 ) ;
#209 = LOCAL_TIME ( 16, 37, 53.00000000000000000, #181 ) ;
#210 = DIRECTION ( 'NONE',  ( 4.275831445896958607E-31, 1.000000000000000000, 1.224646799147353207E-16 ) ) ;
#211 = APPROVAL_STATUS ( 'not_yet_approved' ) ;
#212 = FACE_OUTER_BOUND ( 'NONE', #69, .T. ) ;
#213 = PERSON_AND_ORGANIZATION ( #158, #30 ) ;
#214 = FACE_OUTER_BOUND ( 'NONE', #35, .T. ) ;
#215 = APPROVAL_STATUS ( 'not_yet_approved' ) ;
#216 = CALENDAR_DATE ( 2023, 1, 2 ) ;
#217 = DIRECTION ( 'NONE',  ( -4.275831445896958607E-31, -1.000000000000000000, -1.224646799147353207E-16 ) ) ;
#218 = CALENDAR_DATE ( 2023, 1, 2 ) ;
#219 = AXIS2_PLACEMENT_3D ( 'NONE', #47, #94, #217 ) ;
#220 = SECURITY_CLASSIFICATION ( '', '', #44 ) ;
#221 = COORDINATED_UNIVERSAL_TIME_OFFSET ( 1, 0, .AHEAD. ) ;
#222 = ADVANCED_FACE ( 'NONE', ( #214, #60 ), #91, .T. ) ;
#223 = AXIS2_PLACEMENT_3D ( 'NONE', #19, #204, #210 ) ;
ENDSEC;
END-ISO-10303-21;
