ISO-10303-21;
HEADER;
FILE_DESCRIPTION (( 'STEP AP203' ),
    '1' );
FILE_NAME ('977828.step',
    '2023-02-01T15:37:53',
    ( '' ),
    ( '' ),
    'SwSTEP 2.0',
    'SolidWorks 2019',
    '' );
FILE_SCHEMA (( 'CONFIG_CONTROL_DESIGN' ));
ENDSEC;

DATA;
#1 = DIRECTION ( 'NONE',  ( 0.000000000000000000, 1.000000000000000000, 0.000000000000000000 ) ) ;
#2 = DIRECTION ( 'NONE',  ( 3.491481338843133355E-15, -0.000000000000000000, 1.000000000000000000 ) ) ;
#3 = CARTESIAN_POINT ( 'NONE',  ( 5.237222008264696089E-15, 0.000000000000000000, 1.499999999999998890 ) ) ;
#4 = CIRCLE ( 'NONE', #163, 1.499999999999999778 ) ;
#5 = DIRECTION ( 'NONE',  ( 0.000000000000000000, 1.000000000000000000, 0.000000000000000000 ) ) ;
#6 = DATE_AND_TIME ( #98, #215 ) ;
#7 =( NAMED_UNIT ( * ) SI_UNIT ( $, .STERADIAN. ) SOLID_ANGLE_UNIT ( ) );
#8 = DATE_TIME_ROLE ( 'creation_date' ) ;
#9 = ADVANCED_FACE ( 'NONE', ( #84, #45 ), #63, .T. ) ;
#10 = EDGE_LOOP ( 'NONE', ( #121 ) ) ;
#11 = MANIFOLD_SOLID_BREP ( 'Corps-Déplacer/Copier1[2]', #173 ) ;
#12 = CLOSED_SHELL ( 'NONE', ( #9, #180, #222, #74, #36 ) ) ;
#13 = DIRECTION ( 'NONE',  ( -3.491481338843133355E-15, 1.224646799147353207E-16, -1.000000000000000000 ) ) ;
#14 = CARTESIAN_POINT ( 'NONE',  ( -1.282749433769087582E-30, 0.000000000000000000, -3.673940397442059375E-16 ) ) ;
#15 = CARTESIAN_POINT ( 'NONE',  ( 5.237222008264696089E-15, 0.000000000000000000, 1.499999999999998890 ) ) ;
#16 = CC_DESIGN_SECURITY_CLASSIFICATION ( #122, ( #157 ) ) ;
#17 = CARTESIAN_POINT ( 'NONE',  ( 1.316288464743861212E-13, -4.616918432785521081E-15, 37.69999999999999574 ) ) ;
#18 = DIRECTION ( 'NONE',  ( -3.491481338843133355E-15, 1.224646799147353207E-16, -1.000000000000000000 ) ) ;
#19 = CARTESIAN_POINT ( 'NONE',  ( 0.7500000000000058842, 0.000000000000000000, 1.499999999999996447 ) ) ;
#20 = PRODUCT_DEFINITION ( 'UNKNOWN', '', #157, #153 ) ;
#21 = PERSON_AND_ORGANIZATION ( #145, #101 ) ;
#22 = CARTESIAN_POINT ( 'NONE',  ( 0.7500000000000058842, 0.000000000000000000, 1.499999999999996447 ) ) ;
#23 = COORDINATED_UNIVERSAL_TIME_OFFSET ( 1, 0, .AHEAD. ) ;
#24 = CIRCLE ( 'NONE', #104, 0.7500000000000002220 ) ;
#25 = PERSON_AND_ORGANIZATION ( #145, #101 ) ;
#26 = ORIENTED_EDGE ( 'NONE', *, *, #50, .T. ) ;
#27 = ORIENTED_EDGE ( 'NONE', *, *, #185, .T. ) ;
#28 = EDGE_LOOP ( 'NONE', ( #140 ) ) ;
#29 = UNCERTAINTY_MEASURE_WITH_UNIT (LENGTH_MEASURE( 1.000000000000000082E-05 ), #97, 'distance_accuracy_value', 'NONE');
#30 = CARTESIAN_POINT ( 'NONE',  ( -1.499999999999982903, 0.000000000000000000, 4.881937314617172952 ) ) ;
#31 = EDGE_CURVE ( 'NONE', #71, #71, #4, .T. ) ;
#32 = DIRECTION ( 'NONE',  ( 1.000000000000000000, 0.000000000000000000, -3.491481338843133355E-15 ) ) ;
#33 = DIRECTION ( 'NONE',  ( 1.000000000000000000, 0.000000000000000000, -3.469446951953611033E-15 ) ) ;
#34 = FACE_OUTER_BOUND ( 'NONE', #28, .T. ) ;
#35 = DIRECTION ( 'NONE',  ( -3.491481338843133355E-15, 1.224646799147353207E-16, -1.000000000000000000 ) ) ;
#36 = ADVANCED_FACE ( 'NONE', ( #141 ), #128, .F. ) ;
#37 = CONICAL_SURFACE ( 'NONE', #137, 1.499999999999999778, 0.7853981633974453924 ) ;
#38 = COORDINATED_UNIVERSAL_TIME_OFFSET ( 1, 0, .AHEAD. ) ;
#39 = PERSON_AND_ORGANIZATION_ROLE ( 'creator' ) ;
#40 = DATE_AND_TIME ( #99, #182 ) ;
#41 = DATE_AND_TIME ( #205, #168 ) ;
#42 = CC_DESIGN_PERSON_AND_ORGANIZATION_ASSIGNMENT ( #155, #115, ( #20 ) ) ;
#43 = AXIS2_PLACEMENT_3D ( 'NONE', #193, #13, #119 ) ;
#44 = APPROVAL_PERSON_ORGANIZATION ( #214, #81, #201 ) ;
#45 = FACE_OUTER_BOUND ( 'NONE', #120, .T. ) ;
#46 = ORIENTED_EDGE ( 'NONE', *, *, #169, .T. ) ;
#47 = EDGE_LOOP ( 'NONE', ( #82 ) ) ;
#48 = CARTESIAN_POINT ( 'NONE',  ( 0.7500000000000002220, 0.000000000000000000, -2.986005043876556644E-15 ) ) ;
#49 = CIRCLE ( 'NONE', #221, 0.7500000000000006661 ) ;
#50 = EDGE_CURVE ( 'NONE', #146, #146, #194, .T. ) ;
#51 = CARTESIAN_POINT ( 'NONE',  ( 1.316288464743861212E-13, -4.616918432785521081E-15, 37.69999999999999574 ) ) ;
#52 = DIRECTION ( 'NONE',  ( -1.000000000000000000, 0.000000000000000000, 3.469446951953614189E-15 ) ) ;
#53 = FACE_OUTER_BOUND ( 'NONE', #172, .T. ) ;
#54 = APPLICATION_CONTEXT ( 'configuration controlled 3d designs of mechanical parts and assemblies' ) ;
#55 = PERSON_AND_ORGANIZATION_ROLE ( 'classification_officer' ) ;
#56 = DATE_AND_TIME ( #190, #107 ) ;
#57 = PERSON_AND_ORGANIZATION ( #145, #101 ) ;
#58 = AXIS2_PLACEMENT_3D ( 'NONE', #197, #211, #108 ) ;
#59 = CIRCLE ( 'NONE', #150, 1.500000000000000000 ) ;
#60 = PRODUCT ( '977828', '977828', '', ( #96 ) ) ;
#61 = DATE_TIME_ROLE ( 'classification_date' ) ;
#62 = PRODUCT_RELATED_PRODUCT_CATEGORY ( 'detail', '', ( #60 ) ) ;
#63 = CYLINDRICAL_SURFACE ( 'NONE', #43, 1.500000000000000000 ) ;
#64 = CC_DESIGN_APPROVAL ( #135, ( #157 ) ) ;
#65 = ORIENTED_EDGE ( 'NONE', *, *, #169, .F. ) ;
#66 = EDGE_LOOP ( 'NONE', ( #103 ) ) ;
#67 = AXIS2_PLACEMENT_3D ( 'NONE', #124, #2, #32 ) ;
#68 = DIRECTION ( 'NONE',  ( -3.491481338843133355E-15, 1.224646799147353207E-16, -1.000000000000000000 ) ) ;
#69 = PLANE ( 'NONE',  #87 ) ;
#70 = DIRECTION ( 'NONE',  ( 3.491481338843133355E-15, -0.000000000000000000, 1.000000000000000000 ) ) ;
#71 = VERTEX_POINT ( 'NONE', #110 ) ;
#72 = CARTESIAN_POINT ( 'NONE',  ( 0.000000000000000000, 0.000000000000000000, 0.000000000000000000 ) ) ;
#73 = PERSON_AND_ORGANIZATION_ROLE ( 'design_owner' ) ;
#74 = ADVANCED_FACE ( 'NONE', ( #109, #53 ), #217, .F. ) ;
#75 = CALENDAR_DATE ( 2023, 1, 2 ) ;
#76 = CC_DESIGN_APPROVAL ( #81, ( #20 ) ) ;
#77 = CC_DESIGN_DATE_AND_TIME_ASSIGNMENT ( #56, #8, ( #20 ) ) ;
#78 = APPROVAL_DATE_TIME ( #41, #135 ) ;
#79 = APPROVAL_DATE_TIME ( #40, #203 ) ;
#80 = EDGE_LOOP ( 'NONE', ( #46 ) ) ;
#81 = APPROVAL ( #131, 'UNSPECIFIED' ) ;
#82 = ORIENTED_EDGE ( 'NONE', *, *, #142, .T. ) ;
#83 = AXIS2_PLACEMENT_3D ( 'NONE', #213, #111, #133 ) ;
#84 = FACE_OUTER_BOUND ( 'NONE', #10, .T. ) ;
#85 = MANIFOLD_SOLID_BREP ( 'Corps-Déplacer/Copier1[1]', #12 ) ;
#86 = CARTESIAN_POINT ( 'NONE',  ( 5.237222008264700033E-15, -2.168404344971008621E-16, 1.500000000000000000 ) ) ;
#87 = AXIS2_PLACEMENT_3D ( 'NONE', #161, #68, #198 ) ;
#88 = DIRECTION ( 'NONE',  ( -3.491481338843133355E-15, 1.224646799147353207E-16, -1.000000000000000000 ) ) ;
#89 = FACE_OUTER_BOUND ( 'NONE', #66, .T. ) ;
#90 = CC_DESIGN_PERSON_AND_ORGANIZATION_ASSIGNMENT ( #25, #55, ( #122 ) ) ;
#91 = CYLINDRICAL_SURFACE ( 'NONE', #112, 0.7500000000000004441 ) ;
#92 = ADVANCED_BREP_SHAPE_REPRESENTATION ( '977828', ( #85, #11, #83 ), #208 ) ;
#93 = VERTEX_POINT ( 'NONE', #48 ) ;
#94 = AXIS2_PLACEMENT_3D ( 'NONE', #3, #212, #33 ) ;
#95 = CIRCLE ( 'NONE', #139, 1.199999999999999956 ) ;
#96 = MECHANICAL_CONTEXT ( 'NONE', #54, 'mechanical' ) ;
#97 =( LENGTH_UNIT ( ) NAMED_UNIT ( * ) SI_UNIT ( .MILLI., .METRE. ) );
#98 = CALENDAR_DATE ( 2023, 1, 2 ) ;
#99 = CALENDAR_DATE ( 2023, 1, 2 ) ;
#100 = EDGE_LOOP ( 'NONE', ( #174 ) ) ;
#101 = ORGANIZATION ( 'UNSPECIFIED', 'UNSPECIFIED', '' ) ;
#102 = EDGE_LOOP ( 'NONE', ( #192 ) ) ;
#103 = ORIENTED_EDGE ( 'NONE', *, *, #142, .F. ) ;
#104 = AXIS2_PLACEMENT_3D ( 'NONE', #14, #160, #166 ) ;
#105 = VERTEX_POINT ( 'NONE', #187 ) ;
#106 = CARTESIAN_POINT ( 'NONE',  ( 1.326762908760390423E-13, 8.998558695971077224E-33, 38.00000000000000000 ) ) ;
#107 = LOCAL_TIME ( 16, 37, 53.00000000000000000, #113 ) ;
#108 = DIRECTION ( 'NONE',  ( -4.275831445896958607E-31, -1.000000000000000000, -1.224646799147353207E-16 ) ) ;
#109 = FACE_OUTER_BOUND ( 'NONE', #100, .T. ) ;
#110 = CARTESIAN_POINT ( 'NONE',  ( 1.316288464743861212E-13, 1.499999999999995337, 37.69999999999999574 ) ) ;
#111 = DIRECTION ( 'NONE',  ( 0.000000000000000000, 0.000000000000000000, 1.000000000000000000 ) ) ;
#112 = AXIS2_PLACEMENT_3D ( 'NONE', #72, #147, #196 ) ;
#113 = COORDINATED_UNIVERSAL_TIME_OFFSET ( 1, 0, .AHEAD. ) ;
#114 =( NAMED_UNIT ( * ) PLANE_ANGLE_UNIT ( ) SI_UNIT ( $, .RADIAN. ) );
#115 = PERSON_AND_ORGANIZATION_ROLE ( 'creator' ) ;
#116 = CC_DESIGN_PERSON_AND_ORGANIZATION_ASSIGNMENT ( #21, #186, ( #157 ) ) ;
#117 = PERSON_AND_ORGANIZATION ( #145, #101 ) ;
#118 = PRODUCT_DEFINITION_SHAPE ( 'NONE', 'NONE',  #20 ) ;
#119 = DIRECTION ( 'NONE',  ( 4.275831445896959482E-31, 1.000000000000000000, 1.224646799147353207E-16 ) ) ;
#120 = EDGE_LOOP ( 'NONE', ( #171 ) ) ;
#121 = ORIENTED_EDGE ( 'NONE', *, *, #31, .T. ) ;
#122 = SECURITY_CLASSIFICATION ( '', '', #206 ) ;
#123 = VERTEX_POINT ( 'NONE', #30 ) ;
#124 = CARTESIAN_POINT ( 'NONE',  ( 5.237222008264700033E-15, 0.000000000000000000, 1.500000000000000000 ) ) ;
#125 = DIRECTION ( 'NONE',  ( 4.275831445896958607E-31, 1.000000000000000000, 1.224646799147353207E-16 ) ) ;
#126 = LOCAL_TIME ( 16, 37, 53.00000000000000000, #38 ) ;
#127 = DIRECTION ( 'NONE',  ( 3.491481338843133355E-15, -0.000000000000000000, 1.000000000000000000 ) ) ;
#128 = PLANE ( 'NONE',  #58 ) ;
#129 = VERTEX_POINT ( 'NONE', #22 ) ;
#130 = CC_DESIGN_PERSON_AND_ORGANIZATION_ASSIGNMENT ( #57, #39, ( #157 ) ) ;
#131 = APPROVAL_STATUS ( 'not_yet_approved' ) ;
#132 = APPROVAL_PERSON_ORGANIZATION ( #184, #135, #151 ) ;
#133 = DIRECTION ( 'NONE',  ( 1.000000000000000000, 0.000000000000000000, 0.000000000000000000 ) ) ;
#134 = APPROVAL_ROLE ( '' ) ;
#135 = APPROVAL ( #202, 'UNSPECIFIED' ) ;
#136 = DATE_AND_TIME ( #75, #126 ) ;
#137 = AXIS2_PLACEMENT_3D ( 'NONE', #51, #35, #5 ) ;
#138 = COORDINATED_UNIVERSAL_TIME_OFFSET ( 1, 0, .AHEAD. ) ;
#139 = AXIS2_PLACEMENT_3D ( 'NONE', #181, #18, #200 ) ;
#140 = ORIENTED_EDGE ( 'NONE', *, *, #50, .F. ) ;
#141 = FACE_OUTER_BOUND ( 'NONE', #102, .T. ) ;
#142 = EDGE_CURVE ( 'NONE', #93, #93, #24, .T. ) ;
#143 = FACE_OUTER_BOUND ( 'NONE', #219, .T. ) ;
#144 = FACE_BOUND ( 'NONE', #80, .T. ) ;
#145 = PERSON ( 'UNSPECIFIED', 'UNSPECIFIED', 'UNSPECIFIED', ('UNSPECIFIED'), ('UNSPECIFIED'), ('UNSPECIFIED') ) ;
#146 = VERTEX_POINT ( 'NONE', #19 ) ;
#147 = DIRECTION ( 'NONE',  ( 3.491481338843133355E-15, -0.000000000000000000, 1.000000000000000000 ) ) ;
#148 = CC_DESIGN_PERSON_AND_ORGANIZATION_ASSIGNMENT ( #183, #73, ( #60 ) ) ;
#149 = APPLICATION_PROTOCOL_DEFINITION ( 'international standard', 'config_control_design', 1994, #207 ) ;
#150 = AXIS2_PLACEMENT_3D ( 'NONE', #178, #70, #52 ) ;
#151 = APPROVAL_ROLE ( '' ) ;
#152 = ADVANCED_FACE ( 'NONE', ( #176 ), #159, .T. ) ;
#153 = DESIGN_CONTEXT ( 'detailed design', #207, 'design' ) ;
#154 = APPROVAL_DATE_TIME ( #136, #81 ) ;
#155 = PERSON_AND_ORGANIZATION ( #145, #101 ) ;
#156 = ORIENTED_EDGE ( 'NONE', *, *, #31, .F. ) ;
#157 = PRODUCT_DEFINITION_FORMATION_WITH_SPECIFIED_SOURCE ( 'ANY', '', #60, .NOT_KNOWN. ) ;
#158 = EDGE_CURVE ( 'NONE', #123, #123, #59, .T. ) ;
#159 = PLANE ( 'NONE',  #189 ) ;
#160 = DIRECTION ( 'NONE',  ( 3.491481338843133355E-15, -0.000000000000000000, 1.000000000000000000 ) ) ;
#161 = CARTESIAN_POINT ( 'NONE',  ( -3.206873584422719393E-31, 1.124819836996393206E-32, -9.184850993605149670E-17 ) ) ;
#162 = FACE_OUTER_BOUND ( 'NONE', #220, .T. ) ;
#163 = AXIS2_PLACEMENT_3D ( 'NONE', #17, #209, #1 ) ;
#164 = ADVANCED_FACE ( 'NONE', ( #89 ), #69, .T. ) ;
#165 = APPROVAL_PERSON_ORGANIZATION ( #117, #203, #134 ) ;
#166 = DIRECTION ( 'NONE',  ( 1.000000000000000000, 0.000000000000000000, -3.491481338843133355E-15 ) ) ;
#167 = SHAPE_DEFINITION_REPRESENTATION ( #118, #92 ) ;
#168 = LOCAL_TIME ( 16, 37, 53.00000000000000000, #188 ) ;
#169 = EDGE_CURVE ( 'NONE', #105, #105, #95, .T. ) ;
#170 = CC_DESIGN_DATE_AND_TIME_ASSIGNMENT ( #6, #61, ( #122 ) ) ;
#171 = ORIENTED_EDGE ( 'NONE', *, *, #158, .T. ) ;
#172 = EDGE_LOOP ( 'NONE', ( #27 ) ) ;
#173 = CLOSED_SHELL ( 'NONE', ( #152, #218, #164 ) ) ;
#174 = ORIENTED_EDGE ( 'NONE', *, *, #158, .F. ) ;
#175 = FACE_OUTER_BOUND ( 'NONE', #47, .T. ) ;
#176 = FACE_OUTER_BOUND ( 'NONE', #191, .T. ) ;
#177 = AXIS2_PLACEMENT_3D ( 'NONE', #106, #88, #125 ) ;
#178 = CARTESIAN_POINT ( 'NONE',  ( 1.704519303138779865E-14, 0.000000000000000000, 4.881937314617167623 ) ) ;
#179 = DIRECTION ( 'NONE',  ( 3.491481338843133355E-15, -1.224646799147353207E-16, 1.000000000000000000 ) ) ;
#180 = ADVANCED_FACE ( 'NONE', ( #144, #143 ), #37, .T. ) ;
#181 = CARTESIAN_POINT ( 'NONE',  ( 1.326762908760390423E-13, -4.653657836759941941E-15, 38.00000000000000000 ) ) ;
#182 = LOCAL_TIME ( 16, 37, 53.00000000000000000, #138 ) ;
#183 = PERSON_AND_ORGANIZATION ( #145, #101 ) ;
#184 = PERSON_AND_ORGANIZATION ( #145, #101 ) ;
#185 = EDGE_CURVE ( 'NONE', #129, #129, #49, .T. ) ;
#186 = PERSON_AND_ORGANIZATION_ROLE ( 'design_supplier' ) ;
#187 = CARTESIAN_POINT ( 'NONE',  ( 1.326762908760390423E-13, 1.199999999999995293, 38.00000000000000000 ) ) ;
#188 = COORDINATED_UNIVERSAL_TIME_OFFSET ( 1, 0, .AHEAD. ) ;
#189 = AXIS2_PLACEMENT_3D ( 'NONE', #86, #179, #223 ) ;
#190 = CALENDAR_DATE ( 2023, 1, 2 ) ;
#191 = EDGE_LOOP ( 'NONE', ( #26 ) ) ;
#192 = ORIENTED_EDGE ( 'NONE', *, *, #185, .F. ) ;
#193 = CARTESIAN_POINT ( 'NONE',  ( 0.000000000000000000, 0.000000000000000000, 0.000000000000000000 ) ) ;
#194 = CIRCLE ( 'NONE', #94, 0.7500000000000006661 ) ;
#195 = CC_DESIGN_APPROVAL ( #203, ( #122 ) ) ;
#196 = DIRECTION ( 'NONE',  ( 1.000000000000000000, 0.000000000000000000, -3.491481338843133355E-15 ) ) ;
#197 = CARTESIAN_POINT ( 'NONE',  ( 5.237222008264700033E-15, -2.168404344971008621E-16, 1.500000000000000000 ) ) ;
#198 = DIRECTION ( 'NONE',  ( 4.275831445896958607E-31, 1.000000000000000000, 1.224646799147353207E-16 ) ) ;
#199 = DIRECTION ( 'NONE',  ( 1.000000000000000000, 0.000000000000000000, -3.469446951953611033E-15 ) ) ;
#200 = DIRECTION ( 'NONE',  ( 0.000000000000000000, 1.000000000000000000, 0.000000000000000000 ) ) ;
#201 = APPROVAL_ROLE ( '' ) ;
#202 = APPROVAL_STATUS ( 'not_yet_approved' ) ;
#203 = APPROVAL ( #216, 'UNSPECIFIED' ) ;
#204 = APPLICATION_PROTOCOL_DEFINITION ( 'international standard', 'config_control_design', 1994, #54 ) ;
#205 = CALENDAR_DATE ( 2023, 1, 2 ) ;
#206 = SECURITY_CLASSIFICATION_LEVEL ( 'unclassified' ) ;
#207 = APPLICATION_CONTEXT ( 'configuration controlled 3d designs of mechanical parts and assemblies' ) ;
#208 =( GEOMETRIC_REPRESENTATION_CONTEXT ( 3 ) GLOBAL_UNCERTAINTY_ASSIGNED_CONTEXT ( ( #29 ) ) GLOBAL_UNIT_ASSIGNED_CONTEXT ( ( #97, #114, #7 ) ) REPRESENTATION_CONTEXT ( 'NONE', 'WORKASPACE' ) );
#209 = DIRECTION ( 'NONE',  ( -3.491481338843133355E-15, 1.224646799147353207E-16, -1.000000000000000000 ) ) ;
#210 = PLANE ( 'NONE',  #177 ) ;
#211 = DIRECTION ( 'NONE',  ( 3.491481338843133355E-15, -1.224646799147353207E-16, 1.000000000000000000 ) ) ;
#212 = DIRECTION ( 'NONE',  ( 3.491481338843133355E-15, -0.000000000000000000, 1.000000000000000000 ) ) ;
#213 = CARTESIAN_POINT ( 'NONE',  ( 0.000000000000000000, 0.000000000000000000, 0.000000000000000000 ) ) ;
#214 = PERSON_AND_ORGANIZATION ( #145, #101 ) ;
#215 = LOCAL_TIME ( 16, 37, 53.00000000000000000, #23 ) ;
#216 = APPROVAL_STATUS ( 'not_yet_approved' ) ;
#217 = TOROIDAL_SURFACE ( 'NONE', #67, 8.750000000000000000, 8.000000000000000000 ) ;
#218 = ADVANCED_FACE ( 'NONE', ( #175, #34 ), #91, .T. ) ;
#219 = EDGE_LOOP ( 'NONE', ( #156 ) ) ;
#220 = EDGE_LOOP ( 'NONE', ( #65 ) ) ;
#221 = AXIS2_PLACEMENT_3D ( 'NONE', #15, #127, #199 ) ;
#222 = ADVANCED_FACE ( 'NONE', ( #162 ), #210, .F. ) ;
#223 = DIRECTION ( 'NONE',  ( -4.275831445896958607E-31, -1.000000000000000000, -1.224646799147353207E-16 ) ) ;
ENDSEC;
END-ISO-10303-21;
