ISO-10303-21;
HEADER;
FILE_DESCRIPTION (( 'STEP AP203' ),
    '1' );
FILE_NAME ('977827.step',
    '2023-02-01T15:37:52',
    ( '' ),
    ( '' ),
    'SwSTEP 2.0',
    'SolidWorks 2019',
    '' );
FILE_SCHEMA (( 'CONFIG_CONTROL_DESIGN' ));
ENDSEC;

DATA;
#1 = EDGE_CURVE ( 'NONE', #210, #210, #34, .T. ) ;
#2 = DATE_AND_TIME ( #20, #143 ) ;
#3 = FACE_OUTER_BOUND ( 'NONE', #109, .T. ) ;
#4 = CALENDAR_DATE ( 2023, 1, 2 ) ;
#5 = FACE_OUTER_BOUND ( 'NONE', #42, .T. ) ;
#6 = AXIS2_PLACEMENT_3D ( 'NONE', #212, #206, #116 ) ;
#7 = ADVANCED_FACE ( 'NONE', ( #3 ), #43, .T. ) ;
#8 = FACE_OUTER_BOUND ( 'NONE', #23, .T. ) ;
#9 = AXIS2_PLACEMENT_3D ( 'NONE', #97, #183, #67 ) ;
#10 = CC_DESIGN_DATE_AND_TIME_ASSIGNMENT ( #53, #122, ( #13 ) ) ;
#11 = CC_DESIGN_APPROVAL ( #41, ( #200 ) ) ;
#12 = CC_DESIGN_APPROVAL ( #54, ( #13 ) ) ;
#13 = PRODUCT_DEFINITION ( 'UNKNOWN', '', #101, #47 ) ;
#14 = APPROVAL_STATUS ( 'not_yet_approved' ) ;
#15 = PERSON_AND_ORGANIZATION_ROLE ( 'design_owner' ) ;
#16 = ORIENTED_EDGE ( 'NONE', *, *, #145, .T. ) ;
#17 = TOROIDAL_SURFACE ( 'NONE', #21, 8.699999999999999289, 8.000000000000000000 ) ;
#18 = VERTEX_POINT ( 'NONE', #153 ) ;
#19 = APPROVAL_DATE_TIME ( #84, #54 ) ;
#20 = CALENDAR_DATE ( 2023, 1, 2 ) ;
#21 = AXIS2_PLACEMENT_3D ( 'NONE', #139, #68, #98 ) ;
#22 = EDGE_CURVE ( 'NONE', #186, #186, #130, .T. ) ;
#23 = EDGE_LOOP ( 'NONE', ( #174 ) ) ;
#24 = CARTESIAN_POINT ( 'NONE',  ( 1.316288464743861212E-13, -4.616918432785521081E-15, 37.69999999999999574 ) ) ;
#25 = EDGE_CURVE ( 'NONE', #18, #18, #168, .T. ) ;
#26 = DIRECTION ( 'NONE',  ( 4.275831445896958607E-31, 1.000000000000000000, 1.224646799147353207E-16 ) ) ;
#27 = LOCAL_TIME ( 16, 37, 52.00000000000000000, #80 ) ;
#28 = AXIS2_PLACEMENT_3D ( 'NONE', #205, #134, #115 ) ;
#29 = AXIS2_PLACEMENT_3D ( 'NONE', #24, #132, #94 ) ;
#30 = AXIS2_PLACEMENT_3D ( 'NONE', #167, #136, #49 ) ;
#31 = CC_DESIGN_PERSON_AND_ORGANIZATION_ASSIGNMENT ( #173, #89, ( #101 ) ) ;
#32 = CARTESIAN_POINT ( 'NONE',  ( 0.7000000000000040634, 0.000000000000000000, 1.399999999999996581 ) ) ;
#33 = VERTEX_POINT ( 'NONE', #32 ) ;
#34 = CIRCLE ( 'NONE', #28, 0.6999999999999992895 ) ;
#35 = MECHANICAL_CONTEXT ( 'NONE', #71, 'mechanical' ) ;
#36 = CARTESIAN_POINT ( 'NONE',  ( 1.706328532980063481E-14, 0.000000000000000000, 4.887119154832539003 ) ) ;
#37 = COORDINATED_UNIVERSAL_TIME_OFFSET ( 1, 0, .AHEAD. ) ;
#38 = CONICAL_SURFACE ( 'NONE', #30, 1.499999999999999778, 0.7853981633974453924 ) ;
#39 = CALENDAR_DATE ( 2023, 1, 2 ) ;
#40 = ORIENTED_EDGE ( 'NONE', *, *, #22, .F. ) ;
#41 = APPROVAL ( #44, 'UNSPECIFIED' ) ;
#42 = EDGE_LOOP ( 'NONE', ( #81 ) ) ;
#43 = PLANE ( 'NONE',  #79 ) ;
#44 = APPROVAL_STATUS ( 'not_yet_approved' ) ;
#45 = ORIENTED_EDGE ( 'NONE', *, *, #66, .T. ) ;
#46 = CARTESIAN_POINT ( 'NONE',  ( 4.888073874380385909E-15, -2.023844055306274533E-16, 1.399999999999999689 ) ) ;
#47 = DESIGN_CONTEXT ( 'detailed design', #141, 'design' ) ;
#48 = ORGANIZATION ( 'UNSPECIFIED', 'UNSPECIFIED', '' ) ;
#49 = DIRECTION ( 'NONE',  ( 0.000000000000000000, 1.000000000000000000, 0.000000000000000000 ) ) ;
#50 = FACE_OUTER_BOUND ( 'NONE', #128, .T. ) ;
#51 = DIRECTION ( 'NONE',  ( -1.000000000000000000, 0.000000000000000000, 3.469446951953614189E-15 ) ) ;
#52 = LOCAL_TIME ( 16, 37, 52.00000000000000000, #37 ) ;
#53 = DATE_AND_TIME ( #198, #152 ) ;
#54 = APPROVAL ( #14, 'UNSPECIFIED' ) ;
#55 = DIRECTION ( 'NONE',  ( -3.491481338843133355E-15, 1.224646799147353207E-16, -1.000000000000000000 ) ) ;
#56 = LOCAL_TIME ( 16, 37, 52.00000000000000000, #88 ) ;
#57 = EDGE_LOOP ( 'NONE', ( #16 ) ) ;
#58 = CC_DESIGN_PERSON_AND_ORGANIZATION_ASSIGNMENT ( #106, #123, ( #13 ) ) ;
#59 = CARTESIAN_POINT ( 'NONE',  ( 1.316288464743861212E-13, 1.499999999999995337, 37.69999999999999574 ) ) ;
#60 = PLANE ( 'NONE',  #83 ) ;
#61 = APPROVAL_PERSON_ORGANIZATION ( #177, #41, #129 ) ;
#62 = DIRECTION ( 'NONE',  ( 4.275831445896958607E-31, 1.000000000000000000, 1.224646799147353207E-16 ) ) ;
#63 = PERSON_AND_ORGANIZATION_ROLE ( 'classification_officer' ) ;
#64 = CARTESIAN_POINT ( 'NONE',  ( 4.888073874380385909E-15, -2.023844055306274533E-16, 1.399999999999999689 ) ) ;
#65 = CYLINDRICAL_SURFACE ( 'NONE', #6, 0.6999999999999996225 ) ;
#66 = EDGE_CURVE ( 'NONE', #85, #85, #218, .T. ) ;
#67 = DIRECTION ( 'NONE',  ( 1.000000000000000000, 0.000000000000000000, -3.407492542097303087E-15 ) ) ;
#68 = DIRECTION ( 'NONE',  ( 3.491481338843133355E-15, -0.000000000000000000, 1.000000000000000000 ) ) ;
#69 = APPROVAL_STATUS ( 'not_yet_approved' ) ;
#70 = CARTESIAN_POINT ( 'NONE',  ( 0.000000000000000000, 0.000000000000000000, 0.000000000000000000 ) ) ;
#71 = APPLICATION_CONTEXT ( 'configuration controlled 3d designs of mechanical parts and assemblies' ) ;
#72 = COORDINATED_UNIVERSAL_TIME_OFFSET ( 1, 0, .AHEAD. ) ;
#73 =( NAMED_UNIT ( * ) SI_UNIT ( $, .STERADIAN. ) SOLID_ANGLE_UNIT ( ) );
#74 = ADVANCED_FACE ( 'NONE', ( #5 ), #60, .F. ) ;
#75 = PERSON_AND_ORGANIZATION ( #113, #48 ) ;
#76 = DIRECTION ( 'NONE',  ( 1.000000000000000000, 0.000000000000000000, -3.491481338843133750E-15 ) ) ;
#77 = CLOSED_SHELL ( 'NONE', ( #148, #182, #107, #194, #74 ) ) ;
#78 = CARTESIAN_POINT ( 'NONE',  ( -3.206873584422719393E-31, 1.124819836996393206E-32, -9.184850993605149670E-17 ) ) ;
#79 = AXIS2_PLACEMENT_3D ( 'NONE', #78, #147, #62 ) ;
#80 = COORDINATED_UNIVERSAL_TIME_OFFSET ( 1, 0, .AHEAD. ) ;
#81 = ORIENTED_EDGE ( 'NONE', *, *, #138, .F. ) ;
#82 = CC_DESIGN_PERSON_AND_ORGANIZATION_ASSIGNMENT ( #75, #63, ( #200 ) ) ;
#83 = AXIS2_PLACEMENT_3D ( 'NONE', #64, #188, #191 ) ;
#84 = DATE_AND_TIME ( #39, #56 ) ;
#85 = VERTEX_POINT ( 'NONE', #155 ) ;
#86 = ORIENTED_EDGE ( 'NONE', *, *, #1, .T. ) ;
#87 = CARTESIAN_POINT ( 'NONE',  ( 0.7000000000000040634, 0.000000000000000000, 1.399999999999996581 ) ) ;
#88 = COORDINATED_UNIVERSAL_TIME_OFFSET ( 1, 0, .AHEAD. ) ;
#89 = PERSON_AND_ORGANIZATION_ROLE ( 'creator' ) ;
#90 = EDGE_LOOP ( 'NONE', ( #92 ) ) ;
#91 = AXIS2_PLACEMENT_3D ( 'NONE', #137, #161, #26 ) ;
#92 = ORIENTED_EDGE ( 'NONE', *, *, #145, .F. ) ;
#93 = ORIENTED_EDGE ( 'NONE', *, *, #66, .F. ) ;
#94 = DIRECTION ( 'NONE',  ( 0.000000000000000000, 1.000000000000000000, 0.000000000000000000 ) ) ;
#95 = FACE_OUTER_BOUND ( 'NONE', #126, .T. ) ;
#96 = ADVANCED_FACE ( 'NONE', ( #149, #208 ), #65, .T. ) ;
#97 = CARTESIAN_POINT ( 'NONE',  ( 4.888073874380382753E-15, 0.000000000000000000, 1.399999999999998801 ) ) ;
#98 = DIRECTION ( 'NONE',  ( 1.000000000000000000, 0.000000000000000000, -3.491481338843133355E-15 ) ) ;
#99 = MANIFOLD_SOLID_BREP ( 'Corps-Déplacer/Copier1[1]', #77 ) ;
#100 = AXIS2_PLACEMENT_3D ( 'NONE', #131, #114, #76 ) ;
#101 = PRODUCT_DEFINITION_FORMATION_WITH_SPECIFIED_SOURCE ( 'ANY', '', #189, .NOT_KNOWN. ) ;
#102 =( NAMED_UNIT ( * ) PLANE_ANGLE_UNIT ( ) SI_UNIT ( $, .RADIAN. ) );
#103 = FACE_BOUND ( 'NONE', #146, .T. ) ;
#104 =( LENGTH_UNIT ( ) NAMED_UNIT ( * ) SI_UNIT ( .MILLI., .METRE. ) );
#105 = CLOSED_SHELL ( 'NONE', ( #117, #96, #7 ) ) ;
#106 = PERSON_AND_ORGANIZATION ( #113, #48 ) ;
#107 = ADVANCED_FACE ( 'NONE', ( #179 ), #180, .F. ) ;
#108 = APPROVAL_DATE_TIME ( #222, #199 ) ;
#109 = EDGE_LOOP ( 'NONE', ( #93 ) ) ;
#110 = AXIS2_PLACEMENT_3D ( 'NONE', #112, #160, #190 ) ;
#111 = CIRCLE ( 'NONE', #9, 0.6999999999999992895 ) ;
#112 = CARTESIAN_POINT ( 'NONE',  ( 1.326762908760390423E-13, -4.653657836759941941E-15, 38.00000000000000000 ) ) ;
#113 = PERSON ( 'UNSPECIFIED', 'UNSPECIFIED', 'UNSPECIFIED', ('UNSPECIFIED'), ('UNSPECIFIED'), ('UNSPECIFIED') ) ;
#114 = DIRECTION ( 'NONE',  ( 3.491481338843133355E-15, -0.000000000000000000, 1.000000000000000000 ) ) ;
#115 = DIRECTION ( 'NONE',  ( 1.000000000000000000, 0.000000000000000000, -3.407492542097303087E-15 ) ) ;
#116 = DIRECTION ( 'NONE',  ( 1.000000000000000000, 0.000000000000000000, -3.491481338843133355E-15 ) ) ;
#117 = ADVANCED_FACE ( 'NONE', ( #95 ), #192, .T. ) ;
#118 = DIRECTION ( 'NONE',  ( 3.491481338843133355E-15, -1.224646799147353207E-16, 1.000000000000000000 ) ) ;
#119 = FACE_OUTER_BOUND ( 'NONE', #90, .T. ) ;
#120 = CC_DESIGN_DATE_AND_TIME_ASSIGNMENT ( #2, #175, ( #200 ) ) ;
#121 =( GEOMETRIC_REPRESENTATION_CONTEXT ( 3 ) GLOBAL_UNCERTAINTY_ASSIGNED_CONTEXT ( ( #127 ) ) GLOBAL_UNIT_ASSIGNED_CONTEXT ( ( #104, #102, #73 ) ) REPRESENTATION_CONTEXT ( 'NONE', 'WORKASPACE' ) );
#122 = DATE_TIME_ROLE ( 'creation_date' ) ;
#123 = PERSON_AND_ORGANIZATION_ROLE ( 'creator' ) ;
#124 = CC_DESIGN_SECURITY_CLASSIFICATION ( #200, ( #101 ) ) ;
#125 = PERSON_AND_ORGANIZATION ( #113, #48 ) ;
#126 = EDGE_LOOP ( 'NONE', ( #86 ) ) ;
#127 = UNCERTAINTY_MEASURE_WITH_UNIT (LENGTH_MEASURE( 1.000000000000000082E-05 ), #104, 'distance_accuracy_value', 'NONE');
#128 = EDGE_LOOP ( 'NONE', ( #159 ) ) ;
#129 = APPROVAL_ROLE ( '' ) ;
#130 = CIRCLE ( 'NONE', #29, 1.499999999999999778 ) ;
#131 = CARTESIAN_POINT ( 'NONE',  ( -1.282749433769087582E-30, 0.000000000000000000, -3.673940397442059375E-16 ) ) ;
#132 = DIRECTION ( 'NONE',  ( -3.491481338843133355E-15, 1.224646799147353207E-16, -1.000000000000000000 ) ) ;
#133 = SHAPE_DEFINITION_REPRESENTATION ( #163, #166 ) ;
#134 = DIRECTION ( 'NONE',  ( 3.491481338843133355E-15, -0.000000000000000000, 1.000000000000000000 ) ) ;
#135 = AXIS2_PLACEMENT_3D ( 'NONE', #46, #118, #181 ) ;
#136 = DIRECTION ( 'NONE',  ( -3.491481338843133355E-15, 1.224646799147353207E-16, -1.000000000000000000 ) ) ;
#137 = CARTESIAN_POINT ( 'NONE',  ( 1.326762908760390423E-13, 8.998558695971077224E-33, 38.00000000000000000 ) ) ;
#138 = EDGE_CURVE ( 'NONE', #33, #33, #111, .T. ) ;
#139 = CARTESIAN_POINT ( 'NONE',  ( 4.888073874380386697E-15, 0.000000000000000000, 1.399999999999999911 ) ) ;
#140 = CARTESIAN_POINT ( 'NONE',  ( -1.499999999999982903, 0.000000000000000000, 4.887119154832544332 ) ) ;
#141 = APPLICATION_CONTEXT ( 'configuration controlled 3d designs of mechanical parts and assemblies' ) ;
#142 = DIRECTION ( 'NONE',  ( 0.000000000000000000, 0.000000000000000000, 1.000000000000000000 ) ) ;
#143 = LOCAL_TIME ( 16, 37, 52.00000000000000000, #204 ) ;
#144 = PERSON_AND_ORGANIZATION_ROLE ( 'design_supplier' ) ;
#145 = EDGE_CURVE ( 'NONE', #201, #201, #211, .T. ) ;
#146 = EDGE_LOOP ( 'NONE', ( #220 ) ) ;
#147 = DIRECTION ( 'NONE',  ( -3.491481338843133355E-15, 1.224646799147353207E-16, -1.000000000000000000 ) ) ;
#148 = ADVANCED_FACE ( 'NONE', ( #50, #215 ), #170, .T. ) ;
#149 = FACE_OUTER_BOUND ( 'NONE', #203, .T. ) ;
#150 = APPROVAL_PERSON_ORGANIZATION ( #185, #199, #172 ) ;
#151 = FACE_OUTER_BOUND ( 'NONE', #178, .T. ) ;
#152 = LOCAL_TIME ( 16, 37, 52.00000000000000000, #72 ) ;
#153 = CARTESIAN_POINT ( 'NONE',  ( 1.326762908760390423E-13, 1.199999999999995293, 38.00000000000000000 ) ) ;
#154 = ORIENTED_EDGE ( 'NONE', *, *, #25, .F. ) ;
#155 = CARTESIAN_POINT ( 'NONE',  ( 0.7000000000000000666, 0.000000000000000000, -2.811430976934399582E-15 ) ) ;
#156 = CALENDAR_DATE ( 2023, 1, 2 ) ;
#157 = PERSON_AND_ORGANIZATION ( #113, #48 ) ;
#158 = CC_DESIGN_PERSON_AND_ORGANIZATION_ASSIGNMENT ( #157, #144, ( #101 ) ) ;
#159 = ORIENTED_EDGE ( 'NONE', *, *, #22, .T. ) ;
#160 = DIRECTION ( 'NONE',  ( -3.491481338843133355E-15, 1.224646799147353207E-16, -1.000000000000000000 ) ) ;
#161 = DIRECTION ( 'NONE',  ( -3.491481338843133355E-15, 1.224646799147353207E-16, -1.000000000000000000 ) ) ;
#162 = AXIS2_PLACEMENT_3D ( 'NONE', #70, #142, #216 ) ;
#163 = PRODUCT_DEFINITION_SHAPE ( 'NONE', 'NONE',  #13 ) ;
#164 = MANIFOLD_SOLID_BREP ( 'Corps-Déplacer/Copier1[2]', #105 ) ;
#165 = PRODUCT_RELATED_PRODUCT_CATEGORY ( 'detail', '', ( #189 ) ) ;
#166 = ADVANCED_BREP_SHAPE_REPRESENTATION ( '977827', ( #99, #164, #162 ), #121 ) ;
#167 = CARTESIAN_POINT ( 'NONE',  ( 1.316288464743861212E-13, -4.616918432785521081E-15, 37.69999999999999574 ) ) ;
#168 = CIRCLE ( 'NONE', #110, 1.199999999999999956 ) ;
#169 = APPLICATION_PROTOCOL_DEFINITION ( 'international standard', 'config_control_design', 1994, #141 ) ;
#170 = CYLINDRICAL_SURFACE ( 'NONE', #207, 1.500000000000000000 ) ;
#171 = EDGE_LOOP ( 'NONE', ( #202 ) ) ;
#172 = APPROVAL_ROLE ( '' ) ;
#173 = PERSON_AND_ORGANIZATION ( #113, #48 ) ;
#174 = ORIENTED_EDGE ( 'NONE', *, *, #138, .T. ) ;
#175 = DATE_TIME_ROLE ( 'classification_date' ) ;
#176 = EDGE_LOOP ( 'NONE', ( #154 ) ) ;
#177 = PERSON_AND_ORGANIZATION ( #113, #48 ) ;
#178 = EDGE_LOOP ( 'NONE', ( #40 ) ) ;
#179 = FACE_OUTER_BOUND ( 'NONE', #176, .T. ) ;
#180 = PLANE ( 'NONE',  #91 ) ;
#181 = DIRECTION ( 'NONE',  ( -4.275831445896958607E-31, -1.000000000000000000, -1.224646799147353207E-16 ) ) ;
#182 = ADVANCED_FACE ( 'NONE', ( #103, #151 ), #38, .T. ) ;
#183 = DIRECTION ( 'NONE',  ( 3.491481338843133355E-15, -0.000000000000000000, 1.000000000000000000 ) ) ;
#184 = CC_DESIGN_PERSON_AND_ORGANIZATION_ASSIGNMENT ( #125, #15, ( #189 ) ) ;
#185 = PERSON_AND_ORGANIZATION ( #113, #48 ) ;
#186 = VERTEX_POINT ( 'NONE', #59 ) ;
#187 = DATE_AND_TIME ( #4, #27 ) ;
#188 = DIRECTION ( 'NONE',  ( 3.491481338843133355E-15, -1.224646799147353207E-16, 1.000000000000000000 ) ) ;
#189 = PRODUCT ( '977827', '977827', '', ( #35 ) ) ;
#190 = DIRECTION ( 'NONE',  ( 0.000000000000000000, 1.000000000000000000, 0.000000000000000000 ) ) ;
#191 = DIRECTION ( 'NONE',  ( -4.275831445896958607E-31, -1.000000000000000000, -1.224646799147353207E-16 ) ) ;
#192 = PLANE ( 'NONE',  #135 ) ;
#193 = APPROVAL_PERSON_ORGANIZATION ( #221, #54, #219 ) ;
#194 = ADVANCED_FACE ( 'NONE', ( #119, #8 ), #17, .F. ) ;
#195 = CARTESIAN_POINT ( 'NONE',  ( 0.000000000000000000, 0.000000000000000000, 0.000000000000000000 ) ) ;
#196 = APPLICATION_PROTOCOL_DEFINITION ( 'international standard', 'config_control_design', 1994, #71 ) ;
#197 = CC_DESIGN_APPROVAL ( #199, ( #101 ) ) ;
#198 = CALENDAR_DATE ( 2023, 1, 2 ) ;
#199 = APPROVAL ( #69, 'UNSPECIFIED' ) ;
#200 = SECURITY_CLASSIFICATION ( '', '', #223 ) ;
#201 = VERTEX_POINT ( 'NONE', #140 ) ;
#202 = ORIENTED_EDGE ( 'NONE', *, *, #1, .F. ) ;
#203 = EDGE_LOOP ( 'NONE', ( #45 ) ) ;
#204 = COORDINATED_UNIVERSAL_TIME_OFFSET ( 1, 0, .AHEAD. ) ;
#205 = CARTESIAN_POINT ( 'NONE',  ( 4.888073874380382753E-15, 0.000000000000000000, 1.399999999999998801 ) ) ;
#206 = DIRECTION ( 'NONE',  ( 3.491481338843133355E-15, -0.000000000000000000, 1.000000000000000000 ) ) ;
#207 = AXIS2_PLACEMENT_3D ( 'NONE', #195, #55, #217 ) ;
#208 = FACE_OUTER_BOUND ( 'NONE', #171, .T. ) ;
#209 = APPROVAL_DATE_TIME ( #187, #41 ) ;
#210 = VERTEX_POINT ( 'NONE', #87 ) ;
#211 = CIRCLE ( 'NONE', #213, 1.500000000000000000 ) ;
#212 = CARTESIAN_POINT ( 'NONE',  ( 0.000000000000000000, 0.000000000000000000, 0.000000000000000000 ) ) ;
#213 = AXIS2_PLACEMENT_3D ( 'NONE', #36, #214, #51 ) ;
#214 = DIRECTION ( 'NONE',  ( 3.491481338843133355E-15, -0.000000000000000000, 1.000000000000000000 ) ) ;
#215 = FACE_OUTER_BOUND ( 'NONE', #57, .T. ) ;
#216 = DIRECTION ( 'NONE',  ( 1.000000000000000000, 0.000000000000000000, 0.000000000000000000 ) ) ;
#217 = DIRECTION ( 'NONE',  ( 4.275831445896959482E-31, 1.000000000000000000, 1.224646799147353207E-16 ) ) ;
#218 = CIRCLE ( 'NONE', #100, 0.7000000000000000666 ) ;
#219 = APPROVAL_ROLE ( '' ) ;
#220 = ORIENTED_EDGE ( 'NONE', *, *, #25, .T. ) ;
#221 = PERSON_AND_ORGANIZATION ( #113, #48 ) ;
#222 = DATE_AND_TIME ( #156, #52 ) ;
#223 = SECURITY_CLASSIFICATION_LEVEL ( 'unclassified' ) ;
ENDSEC;
END-ISO-10303-21;
