ISO-10303-21;
HEADER;
FILE_DESCRIPTION (( 'STEP AP203' ),
    '1' );
FILE_NAME ('977826.step',
    '2023-02-01T15:37:51',
    ( '' ),
    ( '' ),
    'SwSTEP 2.0',
    'SolidWorks 2019',
    '' );
FILE_SCHEMA (( 'CONFIG_CONTROL_DESIGN' ));
ENDSEC;

DATA;
#1 = FACE_OUTER_BOUND ( 'NONE', #188, .T. ) ;
#2 = EDGE_CURVE ( 'NONE', #158, #158, #25, .T. ) ;
#3 = LOCAL_TIME ( 16, 37, 51.00000000000000000, #21 ) ;
#4 = PERSON_AND_ORGANIZATION ( #17, #46 ) ;
#5 = APPROVAL_DATE_TIME ( #152, #44 ) ;
#6 = AXIS2_PLACEMENT_3D ( 'NONE', #15, #33, #53 ) ;
#7 = PERSON_AND_ORGANIZATION ( #17, #46 ) ;
#8 = EDGE_LOOP ( 'NONE', ( #81 ) ) ;
#9 = CARTESIAN_POINT ( 'NONE',  ( 4.538925740496069418E-15, 0.000000000000000000, 1.299999999999998934 ) ) ;
#10 = CLOSED_SHELL ( 'NONE', ( #32, #116, #206, #71, #169 ) ) ;
#11 = EDGE_LOOP ( 'NONE', ( #104 ) ) ;
#12 = CC_DESIGN_DATE_AND_TIME_ASSIGNMENT ( #93, #79, ( #68 ) ) ;
#13 = LOCAL_TIME ( 16, 37, 51.00000000000000000, #185 ) ;
#14 = CARTESIAN_POINT ( 'NONE',  ( 1.326762908760390423E-13, 8.998558695971077224E-33, 38.00000000000000000 ) ) ;
#15 = CARTESIAN_POINT ( 'NONE',  ( 1.316288464743861212E-13, -4.616918432785521081E-15, 37.69999999999999574 ) ) ;
#16 = CARTESIAN_POINT ( 'NONE',  ( 1.706818813202496464E-14, 0.000000000000000000, 4.888523373199621602 ) ) ;
#17 = PERSON ( 'UNSPECIFIED', 'UNSPECIFIED', 'UNSPECIFIED', ('UNSPECIFIED'), ('UNSPECIFIED'), ('UNSPECIFIED') ) ;
#18 = DIRECTION ( 'NONE',  ( 3.491481338843133355E-15, -0.000000000000000000, 1.000000000000000000 ) ) ;
#19 = DIRECTION ( 'NONE',  ( -4.275831445896958607E-31, -1.000000000000000000, -1.224646799147353207E-16 ) ) ;
#20 = MECHANICAL_CONTEXT ( 'NONE', #59, 'mechanical' ) ;
#21 = COORDINATED_UNIVERSAL_TIME_OFFSET ( 1, 0, .AHEAD. ) ;
#22 = PERSON_AND_ORGANIZATION_ROLE ( 'design_owner' ) ;
#23 = DATE_AND_TIME ( #199, #3 ) ;
#24 = DATE_AND_TIME ( #186, #13 ) ;
#25 = CIRCLE ( 'NONE', #60, 0.6499999999999995781 ) ;
#26 =( GEOMETRIC_REPRESENTATION_CONTEXT ( 3 ) GLOBAL_UNCERTAINTY_ASSIGNED_CONTEXT ( ( #35 ) ) GLOBAL_UNIT_ASSIGNED_CONTEXT ( ( #61, #94, #115 ) ) REPRESENTATION_CONTEXT ( 'NONE', 'WORKASPACE' ) );
#27 = ORIENTED_EDGE ( 'NONE', *, *, #52, .F. ) ;
#28 = VERTEX_POINT ( 'NONE', #106 ) ;
#29 = CIRCLE ( 'NONE', #166, 0.6500000000000000222 ) ;
#30 = CC_DESIGN_SECURITY_CLASSIFICATION ( #68, ( #95 ) ) ;
#31 = DIRECTION ( 'NONE',  ( -4.275831445896958607E-31, -1.000000000000000000, -1.224646799147353207E-16 ) ) ;
#32 = ADVANCED_FACE ( 'NONE', ( #82, #153 ), #48, .T. ) ;
#33 = DIRECTION ( 'NONE',  ( -3.491481338843133355E-15, 1.224646799147353207E-16, -1.000000000000000000 ) ) ;
#34 = CYLINDRICAL_SURFACE ( 'NONE', #105, 0.6499999999999998002 ) ;
#35 = UNCERTAINTY_MEASURE_WITH_UNIT (LENGTH_MEASURE( 1.000000000000000082E-05 ), #61, 'distance_accuracy_value', 'NONE');
#36 = CC_DESIGN_PERSON_AND_ORGANIZATION_ASSIGNMENT ( #4, #168, ( #68 ) ) ;
#37 = PLANE ( 'NONE',  #211 ) ;
#38 = DIRECTION ( 'NONE',  ( 1.000000000000000000, 0.000000000000000000, 0.000000000000000000 ) ) ;
#39 = APPLICATION_PROTOCOL_DEFINITION ( 'international standard', 'config_control_design', 1994, #59 ) ;
#40 = APPROVAL_STATUS ( 'not_yet_approved' ) ;
#41 = PERSON_AND_ORGANIZATION ( #17, #46 ) ;
#42 = AXIS2_PLACEMENT_3D ( 'NONE', #16, #58, #72 ) ;
#43 = DATE_TIME_ROLE ( 'creation_date' ) ;
#44 = APPROVAL ( #210, 'UNSPECIFIED' ) ;
#45 = ORIENTED_EDGE ( 'NONE', *, *, #146, .F. ) ;
#46 = ORGANIZATION ( 'UNSPECIFIED', 'UNSPECIFIED', '' ) ;
#47 = ORIENTED_EDGE ( 'NONE', *, *, #66, .F. ) ;
#48 = CYLINDRICAL_SURFACE ( 'NONE', #144, 1.500000000000000000 ) ;
#49 = CC_DESIGN_DATE_AND_TIME_ASSIGNMENT ( #129, #43, ( #172 ) ) ;
#50 = DIRECTION ( 'NONE',  ( 3.491481338843133355E-15, -0.000000000000000000, 1.000000000000000000 ) ) ;
#51 = DIRECTION ( 'NONE',  ( 4.275831445896958607E-31, 1.000000000000000000, 1.224646799147353207E-16 ) ) ;
#52 = EDGE_CURVE ( 'NONE', #28, #28, #135, .T. ) ;
#53 = DIRECTION ( 'NONE',  ( 0.000000000000000000, 1.000000000000000000, 0.000000000000000000 ) ) ;
#54 = CONICAL_SURFACE ( 'NONE', #184, 1.499999999999999778, 0.7853981633974453924 ) ;
#55 = VERTEX_POINT ( 'NONE', #213 ) ;
#56 = FACE_OUTER_BOUND ( 'NONE', #201, .T. ) ;
#57 = EDGE_CURVE ( 'NONE', #220, #220, #139, .T. ) ;
#58 = DIRECTION ( 'NONE',  ( 3.491481338843133355E-15, -0.000000000000000000, 1.000000000000000000 ) ) ;
#59 = APPLICATION_CONTEXT ( 'configuration controlled 3d designs of mechanical parts and assemblies' ) ;
#60 = AXIS2_PLACEMENT_3D ( 'NONE', #9, #50, #121 ) ;
#61 =( LENGTH_UNIT ( ) NAMED_UNIT ( * ) SI_UNIT ( .MILLI., .METRE. ) );
#62 = CC_DESIGN_APPROVAL ( #44, ( #172 ) ) ;
#63 = COORDINATED_UNIVERSAL_TIME_OFFSET ( 1, 0, .AHEAD. ) ;
#64 = COORDINATED_UNIVERSAL_TIME_OFFSET ( 1, 0, .AHEAD. ) ;
#65 = PERSON_AND_ORGANIZATION_ROLE ( 'creator' ) ;
#66 = EDGE_CURVE ( 'NONE', #143, #143, #29, .T. ) ;
#67 = PERSON_AND_ORGANIZATION ( #17, #46 ) ;
#68 = SECURITY_CLASSIFICATION ( '', '', #80 ) ;
#69 = ORIENTED_EDGE ( 'NONE', *, *, #98, .T. ) ;
#70 = EDGE_LOOP ( 'NONE', ( #171 ) ) ;
#71 = ADVANCED_FACE ( 'NONE', ( #205, #56 ), #194, .F. ) ;
#72 = DIRECTION ( 'NONE',  ( -1.000000000000000000, 0.000000000000000000, 3.469446951953614189E-15 ) ) ;
#73 = CARTESIAN_POINT ( 'NONE',  ( 1.316288464743861212E-13, 1.499999999999995337, 37.69999999999999574 ) ) ;
#74 = CC_DESIGN_PERSON_AND_ORGANIZATION_ASSIGNMENT ( #7, #200, ( #95 ) ) ;
#75 = DIRECTION ( 'NONE',  ( 1.000000000000000000, 0.000000000000000000, -3.491481338843133355E-15 ) ) ;
#76 = DIRECTION ( 'NONE',  ( 0.000000000000000000, 1.000000000000000000, 0.000000000000000000 ) ) ;
#77 = PERSON_AND_ORGANIZATION ( #17, #46 ) ;
#78 = APPROVAL_PERSON_ORGANIZATION ( #151, #134, #131 ) ;
#79 = DATE_TIME_ROLE ( 'classification_date' ) ;
#80 = SECURITY_CLASSIFICATION_LEVEL ( 'unclassified' ) ;
#81 = ORIENTED_EDGE ( 'NONE', *, *, #98, .F. ) ;
#82 = FACE_OUTER_BOUND ( 'NONE', #70, .T. ) ;
#83 = CIRCLE ( 'NONE', #222, 1.199999999999999956 ) ;
#84 = ORIENTED_EDGE ( 'NONE', *, *, #146, .T. ) ;
#85 = MANIFOLD_SOLID_BREP ( 'Corps-Déplacer/Copier1[1]', #10 ) ;
#86 = APPROVAL_PERSON_ORGANIZATION ( #165, #44, #182 ) ;
#87 = DIRECTION ( 'NONE',  ( 3.491481338843133355E-15, -0.000000000000000000, 1.000000000000000000 ) ) ;
#88 = PLANE ( 'NONE',  #118 ) ;
#89 = DIRECTION ( 'NONE',  ( 1.000000000000000000, 0.000000000000000000, -3.491481338843133355E-15 ) ) ;
#90 = DIRECTION ( 'NONE',  ( -3.491481338843133355E-15, 1.224646799147353207E-16, -1.000000000000000000 ) ) ;
#91 = DIRECTION ( 'NONE',  ( 3.491481338843133355E-15, -0.000000000000000000, 1.000000000000000000 ) ) ;
#92 = VERTEX_POINT ( 'NONE', #212 ) ;
#93 = DATE_AND_TIME ( #215, #176 ) ;
#94 =( NAMED_UNIT ( * ) PLANE_ANGLE_UNIT ( ) SI_UNIT ( $, .RADIAN. ) );
#95 = PRODUCT_DEFINITION_FORMATION_WITH_SPECIFIED_SOURCE ( 'ANY', '', #219, .NOT_KNOWN. ) ;
#96 = APPROVAL_DATE_TIME ( #23, #162 ) ;
#97 = CALENDAR_DATE ( 2023, 1, 2 ) ;
#98 = EDGE_CURVE ( 'NONE', #55, #55, #180, .T. ) ;
#99 = APPROVAL_DATE_TIME ( #24, #134 ) ;
#100 = EDGE_LOOP ( 'NONE', ( #138 ) ) ;
#101 = ADVANCED_BREP_SHAPE_REPRESENTATION ( '977826', ( #85, #161, #156 ), #26 ) ;
#102 = PRODUCT_DEFINITION_SHAPE ( 'NONE', 'NONE',  #172 ) ;
#103 = EDGE_LOOP ( 'NONE', ( #117 ) ) ;
#104 = ORIENTED_EDGE ( 'NONE', *, *, #52, .T. ) ;
#105 = AXIS2_PLACEMENT_3D ( 'NONE', #125, #18, #223 ) ;
#106 = CARTESIAN_POINT ( 'NONE',  ( -1.499999999999982903, 0.000000000000000000, 4.888523373199626931 ) ) ;
#107 = CLOSED_SHELL ( 'NONE', ( #154, #119, #150 ) ) ;
#108 = APPROVAL_PERSON_ORGANIZATION ( #67, #162, #183 ) ;
#109 = FACE_OUTER_BOUND ( 'NONE', #173, .T. ) ;
#110 = FACE_OUTER_BOUND ( 'NONE', #120, .T. ) ;
#111 = CARTESIAN_POINT ( 'NONE',  ( 4.538925740496069418E-15, 0.000000000000000000, 1.299999999999998934 ) ) ;
#112 = CARTESIAN_POINT ( 'NONE',  ( 4.538925740496073362E-15, -1.879283765641540937E-16, 1.300000000000000044 ) ) ;
#113 = APPLICATION_PROTOCOL_DEFINITION ( 'international standard', 'config_control_design', 1994, #198 ) ;
#114 = APPROVAL_STATUS ( 'not_yet_approved' ) ;
#115 =( NAMED_UNIT ( * ) SI_UNIT ( $, .STERADIAN. ) SOLID_ANGLE_UNIT ( ) );
#116 = ADVANCED_FACE ( 'NONE', ( #179, #204 ), #54, .T. ) ;
#117 = ORIENTED_EDGE ( 'NONE', *, *, #57, .F. ) ;
#118 = AXIS2_PLACEMENT_3D ( 'NONE', #14, #157, #51 ) ;
#119 = ADVANCED_FACE ( 'NONE', ( #208, #109 ), #34, .T. ) ;
#120 = EDGE_LOOP ( 'NONE', ( #47 ) ) ;
#121 = DIRECTION ( 'NONE',  ( 1.000000000000000000, 0.000000000000000000, -3.336006684570784876E-15 ) ) ;
#122 = CARTESIAN_POINT ( 'NONE',  ( 0.6500000000000041300, 0.000000000000000000, 1.299999999999996714 ) ) ;
#123 = CARTESIAN_POINT ( 'NONE',  ( 1.326762908760390423E-13, -4.653657836759941941E-15, 38.00000000000000000 ) ) ;
#124 = AXIS2_PLACEMENT_3D ( 'NONE', #111, #91, #140 ) ;
#125 = CARTESIAN_POINT ( 'NONE',  ( 0.000000000000000000, 0.000000000000000000, 0.000000000000000000 ) ) ;
#126 = CARTESIAN_POINT ( 'NONE',  ( 4.538925740496073362E-15, 0.000000000000000000, 1.300000000000000044 ) ) ;
#127 = DIRECTION ( 'NONE',  ( 4.275831445896958607E-31, 1.000000000000000000, 1.224646799147353207E-16 ) ) ;
#128 = DIRECTION ( 'NONE',  ( 0.000000000000000000, 0.000000000000000000, 1.000000000000000000 ) ) ;
#129 = DATE_AND_TIME ( #97, #187 ) ;
#130 = CC_DESIGN_PERSON_AND_ORGANIZATION_ASSIGNMENT ( #214, #65, ( #172 ) ) ;
#131 = APPROVAL_ROLE ( '' ) ;
#132 = AXIS2_PLACEMENT_3D ( 'NONE', #209, #193, #127 ) ;
#133 = CALENDAR_DATE ( 2023, 1, 2 ) ;
#134 = APPROVAL ( #40, 'UNSPECIFIED' ) ;
#135 = CIRCLE ( 'NONE', #42, 1.500000000000000000 ) ;
#136 = CC_DESIGN_APPROVAL ( #162, ( #68 ) ) ;
#137 = CC_DESIGN_PERSON_AND_ORGANIZATION_ASSIGNMENT ( #77, #22, ( #219 ) ) ;
#138 = ORIENTED_EDGE ( 'NONE', *, *, #66, .T. ) ;
#139 = CIRCLE ( 'NONE', #6, 1.499999999999999778 ) ;
#140 = DIRECTION ( 'NONE',  ( 1.000000000000000000, 0.000000000000000000, -3.336006684570784876E-15 ) ) ;
#141 = DESIGN_CONTEXT ( 'detailed design', #198, 'design' ) ;
#142 = CARTESIAN_POINT ( 'NONE',  ( -1.282749433769087582E-30, 0.000000000000000000, -3.673940397442059375E-16 ) ) ;
#143 = VERTEX_POINT ( 'NONE', #207 ) ;
#144 = AXIS2_PLACEMENT_3D ( 'NONE', #218, #195, #145 ) ;
#145 = DIRECTION ( 'NONE',  ( 4.275831445896959482E-31, 1.000000000000000000, 1.224646799147353207E-16 ) ) ;
#146 = EDGE_CURVE ( 'NONE', #92, #92, #83, .T. ) ;
#147 = CARTESIAN_POINT ( 'NONE',  ( 0.000000000000000000, 0.000000000000000000, 0.000000000000000000 ) ) ;
#148 = CC_DESIGN_APPROVAL ( #134, ( #95 ) ) ;
#149 = COORDINATED_UNIVERSAL_TIME_OFFSET ( 1, 0, .AHEAD. ) ;
#150 = ADVANCED_FACE ( 'NONE', ( #110 ), #178, .T. ) ;
#151 = PERSON_AND_ORGANIZATION ( #17, #46 ) ;
#152 = DATE_AND_TIME ( #133, #202 ) ;
#153 = FACE_OUTER_BOUND ( 'NONE', #11, .T. ) ;
#154 = ADVANCED_FACE ( 'NONE', ( #175 ), #197, .T. ) ;
#155 = EDGE_LOOP ( 'NONE', ( #217 ) ) ;
#156 = AXIS2_PLACEMENT_3D ( 'NONE', #147, #128, #38 ) ;
#157 = DIRECTION ( 'NONE',  ( -3.491481338843133355E-15, 1.224646799147353207E-16, -1.000000000000000000 ) ) ;
#158 = VERTEX_POINT ( 'NONE', #122 ) ;
#159 = CARTESIAN_POINT ( 'NONE',  ( 1.316288464743861212E-13, -4.616918432785521081E-15, 37.69999999999999574 ) ) ;
#160 = AXIS2_PLACEMENT_3D ( 'NONE', #164, #192, #31 ) ;
#161 = MANIFOLD_SOLID_BREP ( 'Corps-Déplacer/Copier1[2]', #107 ) ;
#162 = APPROVAL ( #114, 'UNSPECIFIED' ) ;
#163 = DIRECTION ( 'NONE',  ( 0.000000000000000000, 1.000000000000000000, 0.000000000000000000 ) ) ;
#164 = CARTESIAN_POINT ( 'NONE',  ( 4.538925740496073362E-15, -1.879283765641540937E-16, 1.300000000000000044 ) ) ;
#165 = PERSON_AND_ORGANIZATION ( #17, #46 ) ;
#166 = AXIS2_PLACEMENT_3D ( 'NONE', #142, #221, #75 ) ;
#167 = SHAPE_DEFINITION_REPRESENTATION ( #102, #101 ) ;
#168 = PERSON_AND_ORGANIZATION_ROLE ( 'classification_officer' ) ;
#169 = ADVANCED_FACE ( 'NONE', ( #177 ), #37, .F. ) ;
#170 = PERSON_AND_ORGANIZATION_ROLE ( 'creator' ) ;
#171 = ORIENTED_EDGE ( 'NONE', *, *, #57, .T. ) ;
#172 = PRODUCT_DEFINITION ( 'UNKNOWN', '', #95, #141 ) ;
#173 = EDGE_LOOP ( 'NONE', ( #190 ) ) ;
#174 = EDGE_LOOP ( 'NONE', ( #84 ) ) ;
#175 = FACE_OUTER_BOUND ( 'NONE', #155, .T. ) ;
#176 = LOCAL_TIME ( 16, 37, 51.00000000000000000, #64 ) ;
#177 = FACE_OUTER_BOUND ( 'NONE', #8, .T. ) ;
#178 = PLANE ( 'NONE',  #132 ) ;
#179 = FACE_BOUND ( 'NONE', #174, .T. ) ;
#180 = CIRCLE ( 'NONE', #124, 0.6499999999999995781 ) ;
#181 = DIRECTION ( 'NONE',  ( 3.491481338843133355E-15, -1.224646799147353207E-16, 1.000000000000000000 ) ) ;
#182 = APPROVAL_ROLE ( '' ) ;
#183 = APPROVAL_ROLE ( '' ) ;
#184 = AXIS2_PLACEMENT_3D ( 'NONE', #159, #196, #163 ) ;
#185 = COORDINATED_UNIVERSAL_TIME_OFFSET ( 1, 0, .AHEAD. ) ;
#186 = CALENDAR_DATE ( 2023, 1, 2 ) ;
#187 = LOCAL_TIME ( 16, 37, 51.00000000000000000, #63 ) ;
#188 = EDGE_LOOP ( 'NONE', ( #45 ) ) ;
#189 = PRODUCT_RELATED_PRODUCT_CATEGORY ( 'detail', '', ( #219 ) ) ;
#190 = ORIENTED_EDGE ( 'NONE', *, *, #2, .F. ) ;
#191 = CC_DESIGN_PERSON_AND_ORGANIZATION_ASSIGNMENT ( #41, #170, ( #95 ) ) ;
#192 = DIRECTION ( 'NONE',  ( 3.491481338843133355E-15, -1.224646799147353207E-16, 1.000000000000000000 ) ) ;
#193 = DIRECTION ( 'NONE',  ( -3.491481338843133355E-15, 1.224646799147353207E-16, -1.000000000000000000 ) ) ;
#194 = TOROIDAL_SURFACE ( 'NONE', #216, 8.650000000000000355, 8.000000000000000000 ) ;
#195 = DIRECTION ( 'NONE',  ( -3.491481338843133355E-15, 1.224646799147353207E-16, -1.000000000000000000 ) ) ;
#196 = DIRECTION ( 'NONE',  ( -3.491481338843133355E-15, 1.224646799147353207E-16, -1.000000000000000000 ) ) ;
#197 = PLANE ( 'NONE',  #160 ) ;
#198 = APPLICATION_CONTEXT ( 'configuration controlled 3d designs of mechanical parts and assemblies' ) ;
#199 = CALENDAR_DATE ( 2023, 1, 2 ) ;
#200 = PERSON_AND_ORGANIZATION_ROLE ( 'design_supplier' ) ;
#201 = EDGE_LOOP ( 'NONE', ( #69 ) ) ;
#202 = LOCAL_TIME ( 16, 37, 51.00000000000000000, #149 ) ;
#203 = EDGE_LOOP ( 'NONE', ( #27 ) ) ;
#204 = FACE_OUTER_BOUND ( 'NONE', #103, .T. ) ;
#205 = FACE_OUTER_BOUND ( 'NONE', #203, .T. ) ;
#206 = ADVANCED_FACE ( 'NONE', ( #1 ), #88, .F. ) ;
#207 = CARTESIAN_POINT ( 'NONE',  ( 0.6500000000000000222, 0.000000000000000000, -2.636856909992242520E-15 ) ) ;
#208 = FACE_OUTER_BOUND ( 'NONE', #100, .T. ) ;
#209 = CARTESIAN_POINT ( 'NONE',  ( -3.206873584422719393E-31, 1.124819836996393206E-32, -9.184850993605149670E-17 ) ) ;
#210 = APPROVAL_STATUS ( 'not_yet_approved' ) ;
#211 = AXIS2_PLACEMENT_3D ( 'NONE', #112, #181, #19 ) ;
#212 = CARTESIAN_POINT ( 'NONE',  ( 1.326762908760390423E-13, 1.199999999999995293, 38.00000000000000000 ) ) ;
#213 = CARTESIAN_POINT ( 'NONE',  ( 0.6500000000000041300, 0.000000000000000000, 1.299999999999996714 ) ) ;
#214 = PERSON_AND_ORGANIZATION ( #17, #46 ) ;
#215 = CALENDAR_DATE ( 2023, 1, 2 ) ;
#216 = AXIS2_PLACEMENT_3D ( 'NONE', #126, #87, #89 ) ;
#217 = ORIENTED_EDGE ( 'NONE', *, *, #2, .T. ) ;
#218 = CARTESIAN_POINT ( 'NONE',  ( 0.000000000000000000, 0.000000000000000000, 0.000000000000000000 ) ) ;
#219 = PRODUCT ( '977826', '977826', '', ( #20 ) ) ;
#220 = VERTEX_POINT ( 'NONE', #73 ) ;
#221 = DIRECTION ( 'NONE',  ( 3.491481338843133355E-15, -0.000000000000000000, 1.000000000000000000 ) ) ;
#222 = AXIS2_PLACEMENT_3D ( 'NONE', #123, #90, #76 ) ;
#223 = DIRECTION ( 'NONE',  ( 1.000000000000000000, 0.000000000000000000, -3.491481338843133355E-15 ) ) ;
ENDSEC;
END-ISO-10303-21;
