ISO-10303-21;
HEADER;
FILE_DESCRIPTION (( 'STEP AP203' ),
    '1' );
FILE_NAME ('977825.step',
    '2023-02-01T15:37:51',
    ( '' ),
    ( '' ),
    'SwSTEP 2.0',
    'SolidWorks 2019',
    '' );
FILE_SCHEMA (( 'CONFIG_CONTROL_DESIGN' ));
ENDSEC;

DATA;
#1 = SECURITY_CLASSIFICATION_LEVEL ( 'unclassified' ) ;
#2 = ORIENTED_EDGE ( 'NONE', *, *, #126, .F. ) ;
#3 = CC_DESIGN_DATE_AND_TIME_ASSIGNMENT ( #140, #47, ( #141 ) ) ;
#4 = CARTESIAN_POINT ( 'NONE',  ( -3.206873584422719393E-31, 1.124819836996393206E-32, -9.184850993605149670E-17 ) ) ;
#5 = CARTESIAN_POINT ( 'NONE',  ( 1.706098990218310036E-14, 0.000000000000000000, 4.886461718233351625 ) ) ;
#6 = MANIFOLD_SOLID_BREP ( 'Corps-Déplacer/Copier1[1]', #136 ) ;
#7 = ORIENTED_EDGE ( 'NONE', *, *, #108, .F. ) ;
#8 = VERTEX_POINT ( 'NONE', #99 ) ;
#9 = PLANE ( 'NONE',  #124 ) ;
#10 = CIRCLE ( 'NONE', #118, 1.199999999999999956 ) ;
#11 = PLANE ( 'NONE',  #65 ) ;
#12 = VERTEX_POINT ( 'NONE', #182 ) ;
#13 = PERSON_AND_ORGANIZATION_ROLE ( 'design_owner' ) ;
#14 = DATE_AND_TIME ( #223, #205 ) ;
#15 = AXIS2_PLACEMENT_3D ( 'NONE', #143, #21, #194 ) ;
#16 = APPROVAL ( #17, 'UNSPECIFIED' ) ;
#17 = APPROVAL_STATUS ( 'not_yet_approved' ) ;
#18 = PLANE ( 'NONE',  #57 ) ;
#19 = APPROVAL_PERSON_ORGANIZATION ( #220, #16, #191 ) ;
#20 = CC_DESIGN_PERSON_AND_ORGANIZATION_ASSIGNMENT ( #161, #31, ( #86 ) ) ;
#21 = DIRECTION ( 'NONE',  ( -3.491481338843133355E-15, 1.224646799147353207E-16, -1.000000000000000000 ) ) ;
#22 = EDGE_LOOP ( 'NONE', ( #70 ) ) ;
#23 = AXIS2_PLACEMENT_3D ( 'NONE', #74, #33, #52 ) ;
#24 = DIRECTION ( 'NONE',  ( 0.000000000000000000, 1.000000000000000000, 0.000000000000000000 ) ) ;
#25 = CARTESIAN_POINT ( 'NONE',  ( 4.189777606611756082E-15, 0.000000000000000000, 1.199999999999998845 ) ) ;
#26 = FACE_OUTER_BOUND ( 'NONE', #178, .T. ) ;
#27 = APPROVAL ( #160, 'UNSPECIFIED' ) ;
#28 = DIRECTION ( 'NONE',  ( 3.491481338843133355E-15, -0.000000000000000000, 1.000000000000000000 ) ) ;
#29 = DIRECTION ( 'NONE',  ( 1.000000000000000000, 0.000000000000000000, -3.491481338843133355E-15 ) ) ;
#30 = MECHANICAL_CONTEXT ( 'NONE', #125, 'mechanical' ) ;
#31 = PERSON_AND_ORGANIZATION_ROLE ( 'design_supplier' ) ;
#32 = AXIS2_PLACEMENT_3D ( 'NONE', #5, #73, #144 ) ;
#33 = DIRECTION ( 'NONE',  ( -3.491481338843133355E-15, 1.224646799147353207E-16, -1.000000000000000000 ) ) ;
#34 = EDGE_LOOP ( 'NONE', ( #164 ) ) ;
#35 = DIRECTION ( 'NONE',  ( 4.275831445896958607E-31, 1.000000000000000000, 1.224646799147353207E-16 ) ) ;
#36 = AXIS2_PLACEMENT_3D ( 'NONE', #42, #169, #78 ) ;
#37 = ORIENTED_EDGE ( 'NONE', *, *, #108, .T. ) ;
#38 = PRODUCT ( '977825', '977825', '', ( #30 ) ) ;
#39 = EDGE_LOOP ( 'NONE', ( #7 ) ) ;
#40 = CARTESIAN_POINT ( 'NONE',  ( 0.6000000000000040856, 0.000000000000000000, 1.199999999999996625 ) ) ;
#41 = CIRCLE ( 'NONE', #45, 0.5999999999999998668 ) ;
#42 = CARTESIAN_POINT ( 'NONE',  ( 4.189777606611756082E-15, 0.000000000000000000, 1.199999999999998845 ) ) ;
#43 = DIRECTION ( 'NONE',  ( 1.000000000000000000, 0.000000000000000000, -3.491481338843132961E-15 ) ) ;
#44 = ADVANCED_FACE ( 'NONE', ( #208, #94 ), #92, .T. ) ;
#45 = AXIS2_PLACEMENT_3D ( 'NONE', #25, #214, #147 ) ;
#46 = FACE_OUTER_BOUND ( 'NONE', #34, .T. ) ;
#47 = DATE_TIME_ROLE ( 'creation_date' ) ;
#48 = CC_DESIGN_APPROVAL ( #16, ( #86 ) ) ;
#49 = PERSON_AND_ORGANIZATION ( #88, #200 ) ;
#50 = APPROVAL_ROLE ( '' ) ;
#51 = CIRCLE ( 'NONE', #69, 0.5999999999999998668 ) ;
#52 = DIRECTION ( 'NONE',  ( 4.275831445896959482E-31, 1.000000000000000000, 1.224646799147353207E-16 ) ) ;
#53 = FACE_OUTER_BOUND ( 'NONE', #110, .T. ) ;
#54 = ORIENTED_EDGE ( 'NONE', *, *, #103, .F. ) ;
#55 = ORIENTED_EDGE ( 'NONE', *, *, #103, .T. ) ;
#56 = CARTESIAN_POINT ( 'NONE',  ( 0.5999999999999998668, 0.000000000000000000, -2.462282843050085458E-15 ) ) ;
#57 = AXIS2_PLACEMENT_3D ( 'NONE', #4, #127, #35 ) ;
#58 = CYLINDRICAL_SURFACE ( 'NONE', #98, 0.5999999999999998668 ) ;
#59 = DIRECTION ( 'NONE',  ( 0.000000000000000000, 1.000000000000000000, 0.000000000000000000 ) ) ;
#60 = FACE_BOUND ( 'NONE', #130, .T. ) ;
#61 = FACE_OUTER_BOUND ( 'NONE', #179, .T. ) ;
#62 = CC_DESIGN_PERSON_AND_ORGANIZATION_ASSIGNMENT ( #63, #155, ( #141 ) ) ;
#63 = PERSON_AND_ORGANIZATION ( #88, #200 ) ;
#64 = COORDINATED_UNIVERSAL_TIME_OFFSET ( 1, 0, .AHEAD. ) ;
#65 = AXIS2_PLACEMENT_3D ( 'NONE', #132, #151, #216 ) ;
#66 = CC_DESIGN_DATE_AND_TIME_ASSIGNMENT ( #14, #187, ( #177 ) ) ;
#67 = SHAPE_DEFINITION_REPRESENTATION ( #90, #150 ) ;
#68 = PERSON_AND_ORGANIZATION_ROLE ( 'creator' ) ;
#69 = AXIS2_PLACEMENT_3D ( 'NONE', #201, #184, #198 ) ;
#70 = ORIENTED_EDGE ( 'NONE', *, *, #126, .T. ) ;
#71 = EDGE_LOOP ( 'NONE', ( #209 ) ) ;
#72 = EDGE_LOOP ( 'NONE', ( #211 ) ) ;
#73 = DIRECTION ( 'NONE',  ( 3.491481338843133355E-15, -0.000000000000000000, 1.000000000000000000 ) ) ;
#74 = CARTESIAN_POINT ( 'NONE',  ( 0.000000000000000000, 0.000000000000000000, 0.000000000000000000 ) ) ;
#75 = VERTEX_POINT ( 'NONE', #56 ) ;
#76 = CARTESIAN_POINT ( 'NONE',  ( -1.499999999999982903, 0.000000000000000000, 4.886461718233356066 ) ) ;
#77 = LOCAL_TIME ( 16, 37, 51.00000000000000000, #204 ) ;
#78 = DIRECTION ( 'NONE',  ( 1.000000000000000000, 0.000000000000000000, -3.614007241618349165E-15 ) ) ;
#79 = APPROVAL ( #102, 'UNSPECIFIED' ) ;
#80 = APPROVAL_DATE_TIME ( #206, #79 ) ;
#81 = ADVANCED_FACE ( 'NONE', ( #53 ), #18, .T. ) ;
#82 = COORDINATED_UNIVERSAL_TIME_OFFSET ( 1, 0, .AHEAD. ) ;
#83 = AXIS2_PLACEMENT_3D ( 'NONE', #219, #100, #104 ) ;
#84 = APPROVAL_DATE_TIME ( #175, #16 ) ;
#85 = ADVANCED_FACE ( 'NONE', ( #89 ), #128, .F. ) ;
#86 = PRODUCT_DEFINITION_FORMATION_WITH_SPECIFIED_SOURCE ( 'ANY', '', #38, .NOT_KNOWN. ) ;
#87 = CC_DESIGN_APPROVAL ( #27, ( #177 ) ) ;
#88 = PERSON ( 'UNSPECIFIED', 'UNSPECIFIED', 'UNSPECIFIED', ('UNSPECIFIED'), ('UNSPECIFIED'), ('UNSPECIFIED') ) ;
#89 = FACE_OUTER_BOUND ( 'NONE', #39, .T. ) ;
#90 = PRODUCT_DEFINITION_SHAPE ( 'NONE', 'NONE',  #141 ) ;
#91 = PRODUCT_RELATED_PRODUCT_CATEGORY ( 'detail', '', ( #38 ) ) ;
#92 = CYLINDRICAL_SURFACE ( 'NONE', #23, 1.500000000000000000 ) ;
#93 = CIRCLE ( 'NONE', #36, 0.5999999999999998668 ) ;
#94 = FACE_OUTER_BOUND ( 'NONE', #145, .T. ) ;
#95 = DIRECTION ( 'NONE',  ( -4.275831445896958607E-31, -1.000000000000000000, -1.224646799147353207E-16 ) ) ;
#96 = VERTEX_POINT ( 'NONE', #76 ) ;
#97 = CARTESIAN_POINT ( 'NONE',  ( 4.189777606611759237E-15, 0.000000000000000000, 1.199999999999999956 ) ) ;
#98 = AXIS2_PLACEMENT_3D ( 'NONE', #167, #218, #43 ) ;
#99 = CARTESIAN_POINT ( 'NONE',  ( 0.6000000000000040856, 0.000000000000000000, 1.199999999999996625 ) ) ;
#100 = DIRECTION ( 'NONE',  ( 0.000000000000000000, 0.000000000000000000, 1.000000000000000000 ) ) ;
#101 = TOROIDAL_SURFACE ( 'NONE', #153, 8.599999999999999645, 8.000000000000000000 ) ;
#102 = APPROVAL_STATUS ( 'not_yet_approved' ) ;
#103 = EDGE_CURVE ( 'NONE', #96, #96, #217, .T. ) ;
#104 = DIRECTION ( 'NONE',  ( 1.000000000000000000, 0.000000000000000000, 0.000000000000000000 ) ) ;
#105 = COORDINATED_UNIVERSAL_TIME_OFFSET ( 1, 0, .AHEAD. ) ;
#106 = LOCAL_TIME ( 16, 37, 51.00000000000000000, #105 ) ;
#107 = PERSON_AND_ORGANIZATION ( #88, #200 ) ;
#108 = EDGE_CURVE ( 'NONE', #185, #185, #10, .T. ) ;
#109 = ORIENTED_EDGE ( 'NONE', *, *, #123, .F. ) ;
#110 = EDGE_LOOP ( 'NONE', ( #129 ) ) ;
#111 = CC_DESIGN_PERSON_AND_ORGANIZATION_ASSIGNMENT ( #139, #221, ( #177 ) ) ;
#112 = VERTEX_POINT ( 'NONE', #40 ) ;
#113 = CARTESIAN_POINT ( 'NONE',  ( 1.316288464743861212E-13, -4.616918432785521081E-15, 37.69999999999999574 ) ) ;
#114 = DIRECTION ( 'NONE',  ( -3.491481338843133355E-15, 1.224646799147353207E-16, -1.000000000000000000 ) ) ;
#115 = DIRECTION ( 'NONE',  ( -3.491481338843133355E-15, 1.224646799147353207E-16, -1.000000000000000000 ) ) ;
#116 = PERSON_AND_ORGANIZATION ( #88, #200 ) ;
#117 = CALENDAR_DATE ( 2023, 1, 2 ) ;
#118 = AXIS2_PLACEMENT_3D ( 'NONE', #212, #114, #24 ) ;
#119 = CALENDAR_DATE ( 2023, 1, 2 ) ;
#120 = PERSON_AND_ORGANIZATION ( #88, #200 ) ;
#121 = DESIGN_CONTEXT ( 'detailed design', #203, 'design' ) ;
#122 = COORDINATED_UNIVERSAL_TIME_OFFSET ( 1, 0, .AHEAD. ) ;
#123 = EDGE_CURVE ( 'NONE', #8, #8, #41, .T. ) ;
#124 = AXIS2_PLACEMENT_3D ( 'NONE', #215, #135, #95 ) ;
#125 = APPLICATION_CONTEXT ( 'configuration controlled 3d designs of mechanical parts and assemblies' ) ;
#126 = EDGE_CURVE ( 'NONE', #112, #112, #93, .T. ) ;
#127 = DIRECTION ( 'NONE',  ( -3.491481338843133355E-15, 1.224646799147353207E-16, -1.000000000000000000 ) ) ;
#128 = PLANE ( 'NONE',  #15 ) ;
#129 = ORIENTED_EDGE ( 'NONE', *, *, #159, .F. ) ;
#130 = EDGE_LOOP ( 'NONE', ( #37 ) ) ;
#131 = APPROVAL_PERSON_ORGANIZATION ( #107, #79, #138 ) ;
#132 = CARTESIAN_POINT ( 'NONE',  ( 4.189777606611758449E-15, -1.734723475976806355E-16, 1.199999999999999734 ) ) ;
#133 = CARTESIAN_POINT ( 'NONE',  ( 1.316288464743861212E-13, -4.616918432785521081E-15, 37.69999999999999574 ) ) ;
#134 = ADVANCED_FACE ( 'NONE', ( #26 ), #9, .F. ) ;
#135 = DIRECTION ( 'NONE',  ( 3.491481338843133355E-15, -1.224646799147353207E-16, 1.000000000000000000 ) ) ;
#136 = CLOSED_SHELL ( 'NONE', ( #44, #183, #85, #202, #134 ) ) ;
#137 = DATE_AND_TIME ( #119, #163 ) ;
#138 = APPROVAL_ROLE ( '' ) ;
#139 = PERSON_AND_ORGANIZATION ( #88, #200 ) ;
#140 = DATE_AND_TIME ( #190, #77 ) ;
#141 = PRODUCT_DEFINITION ( 'UNKNOWN', '', #86, #121 ) ;
#142 = ORIENTED_EDGE ( 'NONE', *, *, #123, .T. ) ;
#143 = CARTESIAN_POINT ( 'NONE',  ( 1.326762908760390423E-13, 8.998558695971077224E-33, 38.00000000000000000 ) ) ;
#144 = DIRECTION ( 'NONE',  ( -1.000000000000000000, 0.000000000000000000, 3.469446951953614189E-15 ) ) ;
#145 = EDGE_LOOP ( 'NONE', ( #55 ) ) ;
#146 = ADVANCED_FACE ( 'NONE', ( #152 ), #11, .T. ) ;
#147 = DIRECTION ( 'NONE',  ( 1.000000000000000000, 0.000000000000000000, -3.614007241618349165E-15 ) ) ;
#148 = LOCAL_TIME ( 16, 37, 51.00000000000000000, #64 ) ;
#149 =( NAMED_UNIT ( * ) PLANE_ANGLE_UNIT ( ) SI_UNIT ( $, .RADIAN. ) );
#150 = ADVANCED_BREP_SHAPE_REPRESENTATION ( '977825', ( #6, #157, #83 ), #193 ) ;
#151 = DIRECTION ( 'NONE',  ( 3.491481338843133355E-15, -1.224646799147353207E-16, 1.000000000000000000 ) ) ;
#152 = FACE_OUTER_BOUND ( 'NONE', #192, .T. ) ;
#153 = AXIS2_PLACEMENT_3D ( 'NONE', #97, #28, #29 ) ;
#154 = CC_DESIGN_SECURITY_CLASSIFICATION ( #177, ( #86 ) ) ;
#155 = PERSON_AND_ORGANIZATION_ROLE ( 'creator' ) ;
#156 = APPLICATION_PROTOCOL_DEFINITION ( 'international standard', 'config_control_design', 1994, #125 ) ;
#157 = MANIFOLD_SOLID_BREP ( 'Corps-Déplacer/Copier1[2]', #170 ) ;
#158 = APPROVAL_PERSON_ORGANIZATION ( #49, #27, #50 ) ;
#159 = EDGE_CURVE ( 'NONE', #75, #75, #51, .T. ) ;
#160 = APPROVAL_STATUS ( 'not_yet_approved' ) ;
#161 = PERSON_AND_ORGANIZATION ( #88, #200 ) ;
#162 = CIRCLE ( 'NONE', #197, 1.499999999999999778 ) ;
#163 = LOCAL_TIME ( 16, 37, 51.00000000000000000, #82 ) ;
#164 = ORIENTED_EDGE ( 'NONE', *, *, #195, .F. ) ;
#165 = EDGE_LOOP ( 'NONE', ( #109 ) ) ;
#166 = ADVANCED_FACE ( 'NONE', ( #213, #199 ), #58, .T. ) ;
#167 = CARTESIAN_POINT ( 'NONE',  ( 0.000000000000000000, 0.000000000000000000, 0.000000000000000000 ) ) ;
#168 = UNCERTAINTY_MEASURE_WITH_UNIT (LENGTH_MEASURE( 1.000000000000000082E-05 ), #181, 'distance_accuracy_value', 'NONE');
#169 = DIRECTION ( 'NONE',  ( 3.491481338843133355E-15, -0.000000000000000000, 1.000000000000000000 ) ) ;
#170 = CLOSED_SHELL ( 'NONE', ( #146, #166, #81 ) ) ;
#171 = DIRECTION ( 'NONE',  ( 0.000000000000000000, 1.000000000000000000, 0.000000000000000000 ) ) ;
#172 =( NAMED_UNIT ( * ) SI_UNIT ( $, .STERADIAN. ) SOLID_ANGLE_UNIT ( ) );
#173 = FACE_OUTER_BOUND ( 'NONE', #22, .T. ) ;
#174 = CC_DESIGN_PERSON_AND_ORGANIZATION_ASSIGNMENT ( #120, #68, ( #86 ) ) ;
#175 = DATE_AND_TIME ( #117, #148 ) ;
#176 = CALENDAR_DATE ( 2023, 1, 2 ) ;
#177 = SECURITY_CLASSIFICATION ( '', '', #1 ) ;
#178 = EDGE_LOOP ( 'NONE', ( #2 ) ) ;
#179 = EDGE_LOOP ( 'NONE', ( #54 ) ) ;
#180 = CONICAL_SURFACE ( 'NONE', #188, 1.499999999999999778, 0.7853981633974453924 ) ;
#181 =( LENGTH_UNIT ( ) NAMED_UNIT ( * ) SI_UNIT ( .MILLI., .METRE. ) );
#182 = CARTESIAN_POINT ( 'NONE',  ( 1.316288464743861212E-13, 1.499999999999995337, 37.69999999999999574 ) ) ;
#183 = ADVANCED_FACE ( 'NONE', ( #60, #46 ), #180, .T. ) ;
#184 = DIRECTION ( 'NONE',  ( 3.491481338843133355E-15, -0.000000000000000000, 1.000000000000000000 ) ) ;
#185 = VERTEX_POINT ( 'NONE', #196 ) ;
#186 = DIRECTION ( 'NONE',  ( -3.491481338843133355E-15, 1.224646799147353207E-16, -1.000000000000000000 ) ) ;
#187 = DATE_TIME_ROLE ( 'classification_date' ) ;
#188 = AXIS2_PLACEMENT_3D ( 'NONE', #133, #115, #59 ) ;
#189 = APPROVAL_DATE_TIME ( #137, #27 ) ;
#190 = CALENDAR_DATE ( 2023, 1, 2 ) ;
#191 = APPROVAL_ROLE ( '' ) ;
#192 = EDGE_LOOP ( 'NONE', ( #142 ) ) ;
#193 =( GEOMETRIC_REPRESENTATION_CONTEXT ( 3 ) GLOBAL_UNCERTAINTY_ASSIGNED_CONTEXT ( ( #168 ) ) GLOBAL_UNIT_ASSIGNED_CONTEXT ( ( #181, #149, #172 ) ) REPRESENTATION_CONTEXT ( 'NONE', 'WORKASPACE' ) );
#194 = DIRECTION ( 'NONE',  ( 4.275831445896958607E-31, 1.000000000000000000, 1.224646799147353207E-16 ) ) ;
#195 = EDGE_CURVE ( 'NONE', #12, #12, #162, .T. ) ;
#196 = CARTESIAN_POINT ( 'NONE',  ( 1.326762908760390423E-13, 1.199999999999995293, 38.00000000000000000 ) ) ;
#197 = AXIS2_PLACEMENT_3D ( 'NONE', #113, #186, #171 ) ;
#198 = DIRECTION ( 'NONE',  ( 1.000000000000000000, 0.000000000000000000, -3.491481338843132961E-15 ) ) ;
#199 = FACE_OUTER_BOUND ( 'NONE', #165, .T. ) ;
#200 = ORGANIZATION ( 'UNSPECIFIED', 'UNSPECIFIED', '' ) ;
#201 = CARTESIAN_POINT ( 'NONE',  ( -1.282749433769087582E-30, 0.000000000000000000, -3.673940397442059375E-16 ) ) ;
#202 = ADVANCED_FACE ( 'NONE', ( #61, #173 ), #101, .F. ) ;
#203 = APPLICATION_CONTEXT ( 'configuration controlled 3d designs of mechanical parts and assemblies' ) ;
#204 = COORDINATED_UNIVERSAL_TIME_OFFSET ( 1, 0, .AHEAD. ) ;
#205 = LOCAL_TIME ( 16, 37, 51.00000000000000000, #122 ) ;
#206 = DATE_AND_TIME ( #176, #106 ) ;
#207 = APPLICATION_PROTOCOL_DEFINITION ( 'international standard', 'config_control_design', 1994, #203 ) ;
#208 = FACE_OUTER_BOUND ( 'NONE', #71, .T. ) ;
#209 = ORIENTED_EDGE ( 'NONE', *, *, #195, .T. ) ;
#210 = CC_DESIGN_PERSON_AND_ORGANIZATION_ASSIGNMENT ( #116, #13, ( #38 ) ) ;
#211 = ORIENTED_EDGE ( 'NONE', *, *, #159, .T. ) ;
#212 = CARTESIAN_POINT ( 'NONE',  ( 1.326762908760390423E-13, -4.653657836759941941E-15, 38.00000000000000000 ) ) ;
#213 = FACE_OUTER_BOUND ( 'NONE', #72, .T. ) ;
#214 = DIRECTION ( 'NONE',  ( 3.491481338843133355E-15, -0.000000000000000000, 1.000000000000000000 ) ) ;
#215 = CARTESIAN_POINT ( 'NONE',  ( 4.189777606611758449E-15, -1.734723475976806355E-16, 1.199999999999999734 ) ) ;
#216 = DIRECTION ( 'NONE',  ( -4.275831445896958607E-31, -1.000000000000000000, -1.224646799147353207E-16 ) ) ;
#217 = CIRCLE ( 'NONE', #32, 1.500000000000000000 ) ;
#218 = DIRECTION ( 'NONE',  ( 3.491481338843133355E-15, -0.000000000000000000, 1.000000000000000000 ) ) ;
#219 = CARTESIAN_POINT ( 'NONE',  ( 0.000000000000000000, 0.000000000000000000, 0.000000000000000000 ) ) ;
#220 = PERSON_AND_ORGANIZATION ( #88, #200 ) ;
#221 = PERSON_AND_ORGANIZATION_ROLE ( 'classification_officer' ) ;
#222 = CC_DESIGN_APPROVAL ( #79, ( #141 ) ) ;
#223 = CALENDAR_DATE ( 2023, 1, 2 ) ;
ENDSEC;
END-ISO-10303-21;
