ISO-10303-21;
HEADER;
FILE_DESCRIPTION (( 'STEP AP203' ),
    '1' );
FILE_NAME ('977823.step',
    '2023-02-01T15:37:50',
    ( '' ),
    ( '' ),
    'SwSTEP 2.0',
    'SolidWorks 2019',
    '' );
FILE_SCHEMA (( 'CONFIG_CONTROL_DESIGN' ));
ENDSEC;

DATA;
#1 = CARTESIAN_POINT ( 'NONE',  ( -1.499999999999983125, 0.000000000000000000, 4.872983346207420574 ) ) ;
#2 = CC_DESIGN_PERSON_AND_ORGANIZATION_ASSIGNMENT ( #19, #188, ( #206 ) ) ;
#3 = PERSON_AND_ORGANIZATION ( #144, #117 ) ;
#4 = CARTESIAN_POINT ( 'NONE',  ( 0.000000000000000000, 0.000000000000000000, 0.000000000000000000 ) ) ;
#5 = DIRECTION ( 'NONE',  ( -3.491481338843133355E-15, 1.224646799147353207E-16, -1.000000000000000000 ) ) ;
#6 = AXIS2_PLACEMENT_3D ( 'NONE', #196, #88, #48 ) ;
#7 = DIRECTION ( 'NONE',  ( -3.491481338843133355E-15, 1.224646799147353207E-16, -1.000000000000000000 ) ) ;
#8 = PLANE ( 'NONE',  #55 ) ;
#9 = EDGE_CURVE ( 'NONE', #91, #91, #177, .T. ) ;
#10 = FACE_BOUND ( 'NONE', #128, .T. ) ;
#11 = ADVANCED_BREP_SHAPE_REPRESENTATION ( '977823', ( #190, #51, #25 ), #45 ) ;
#12 = DIRECTION ( 'NONE',  ( 4.275831445896958607E-31, 1.000000000000000000, 1.224646799147353207E-16 ) ) ;
#13 = FACE_OUTER_BOUND ( 'NONE', #183, .T. ) ;
#14 = CLOSED_SHELL ( 'NONE', ( #78, #70, #47, #64, #22 ) ) ;
#15 = ORIENTED_EDGE ( 'NONE', *, *, #9, .T. ) ;
#16 = CC_DESIGN_PERSON_AND_ORGANIZATION_ASSIGNMENT ( #210, #43, ( #34 ) ) ;
#17 = APPLICATION_CONTEXT ( 'configuration controlled 3d designs of mechanical parts and assemblies' ) ;
#18 = APPROVAL_ROLE ( '' ) ;
#19 = PERSON_AND_ORGANIZATION ( #144, #117 ) ;
#20 = EDGE_LOOP ( 'NONE', ( #60 ) ) ;
#21 = CALENDAR_DATE ( 2023, 1, 2 ) ;
#22 = ADVANCED_FACE ( 'NONE', ( #166 ), #75, .F. ) ;
#23 = AXIS2_PLACEMENT_3D ( 'NONE', #132, #187, #135 ) ;
#24 =( NAMED_UNIT ( * ) PLANE_ANGLE_UNIT ( ) SI_UNIT ( $, .RADIAN. ) );
#25 = AXIS2_PLACEMENT_3D ( 'NONE', #129, #40, #42 ) ;
#26 = CARTESIAN_POINT ( 'NONE',  ( -1.282749433769087582E-30, 0.000000000000000000, -3.673940397442059375E-16 ) ) ;
#27 = DIRECTION ( 'NONE',  ( -3.491481338843133355E-15, 1.224646799147353207E-16, -1.000000000000000000 ) ) ;
#28 = CC_DESIGN_PERSON_AND_ORGANIZATION_ASSIGNMENT ( #131, #127, ( #223 ) ) ;
#29 = DIRECTION ( 'NONE',  ( 4.275831445896958607E-31, 1.000000000000000000, 1.224646799147353207E-16 ) ) ;
#30 = CARTESIAN_POINT ( 'NONE',  ( 3.491481338843133355E-15, -1.445602896647339163E-16, 1.000000000000000000 ) ) ;
#31 = DATE_AND_TIME ( #122, #76 ) ;
#32 = APPROVAL ( #168, 'UNSPECIFIED' ) ;
#33 = UNCERTAINTY_MEASURE_WITH_UNIT (LENGTH_MEASURE( 1.000000000000000082E-05 ), #212, 'distance_accuracy_value', 'NONE');
#34 = PRODUCT_DEFINITION_FORMATION_WITH_SPECIFIED_SOURCE ( 'ANY', '', #206, .NOT_KNOWN. ) ;
#35 = ORIENTED_EDGE ( 'NONE', *, *, #73, .F. ) ;
#36 = AXIS2_PLACEMENT_3D ( 'NONE', #200, #108, #167 ) ;
#37 = CC_DESIGN_APPROVAL ( #182, ( #223 ) ) ;
#38 = EDGE_LOOP ( 'NONE', ( #185 ) ) ;
#39 = DATE_AND_TIME ( #146, #151 ) ;
#40 = DIRECTION ( 'NONE',  ( 0.000000000000000000, 0.000000000000000000, 1.000000000000000000 ) ) ;
#41 = PERSON_AND_ORGANIZATION ( #144, #117 ) ;
#42 = DIRECTION ( 'NONE',  ( 1.000000000000000000, 0.000000000000000000, 0.000000000000000000 ) ) ;
#43 = PERSON_AND_ORGANIZATION_ROLE ( 'design_supplier' ) ;
#44 = VERTEX_POINT ( 'NONE', #147 ) ;
#45 =( GEOMETRIC_REPRESENTATION_CONTEXT ( 3 ) GLOBAL_UNCERTAINTY_ASSIGNED_CONTEXT ( ( #33 ) ) GLOBAL_UNIT_ASSIGNED_CONTEXT ( ( #212, #24, #65 ) ) REPRESENTATION_CONTEXT ( 'NONE', 'WORKASPACE' ) );
#46 = CARTESIAN_POINT ( 'NONE',  ( -3.206873584422719393E-31, 1.124819836996393206E-32, -9.184850993605149670E-17 ) ) ;
#47 = ADVANCED_FACE ( 'NONE', ( #13 ), #94, .F. ) ;
#48 = DIRECTION ( 'NONE',  ( 1.000000000000000000, 0.000000000000000000, -3.469446951953611033E-15 ) ) ;
#49 = CARTESIAN_POINT ( 'NONE',  ( 0.000000000000000000, 0.000000000000000000, 0.000000000000000000 ) ) ;
#50 = CC_DESIGN_PERSON_AND_ORGANIZATION_ASSIGNMENT ( #3, #153, ( #34 ) ) ;
#51 = MANIFOLD_SOLID_BREP ( 'Corps-Déplacer/Copier1[2]', #82 ) ;
#52 = APPROVAL_DATE_TIME ( #31, #32 ) ;
#53 = EDGE_LOOP ( 'NONE', ( #79 ) ) ;
#54 = CARTESIAN_POINT ( 'NONE',  ( 1.326762908760390423E-13, -4.653657836759941941E-15, 38.00000000000000000 ) ) ;
#55 = AXIS2_PLACEMENT_3D ( 'NONE', #30, #179, #90 ) ;
#56 = ORIENTED_EDGE ( 'NONE', *, *, #73, .T. ) ;
#57 = DESIGN_CONTEXT ( 'detailed design', #17, 'design' ) ;
#58 = EDGE_CURVE ( 'NONE', #86, #86, #87, .T. ) ;
#59 = VERTEX_POINT ( 'NONE', #61 ) ;
#60 = ORIENTED_EDGE ( 'NONE', *, *, #116, .T. ) ;
#61 = CARTESIAN_POINT ( 'NONE',  ( 1.316288464743861212E-13, 1.499999999999995337, 37.69999999999999574 ) ) ;
#62 = LOCAL_TIME ( 16, 37, 50.00000000000000000, #189 ) ;
#63 = ORIENTED_EDGE ( 'NONE', *, *, #85, .T. ) ;
#64 = ADVANCED_FACE ( 'NONE', ( #74, #202 ), #125, .F. ) ;
#65 =( NAMED_UNIT ( * ) SI_UNIT ( $, .STERADIAN. ) SOLID_ANGLE_UNIT ( ) );
#66 = MECHANICAL_CONTEXT ( 'NONE', #218, 'mechanical' ) ;
#67 = AXIS2_PLACEMENT_3D ( 'NONE', #104, #7, #12 ) ;
#68 = DIRECTION ( 'NONE',  ( -3.491481338843133355E-15, 1.224646799147353207E-16, -1.000000000000000000 ) ) ;
#69 = CC_DESIGN_APPROVAL ( #163, ( #34 ) ) ;
#70 = ADVANCED_FACE ( 'NONE', ( #10, #119 ), #170, .T. ) ;
#71 = DIRECTION ( 'NONE',  ( -3.491481338843133355E-15, 1.224646799147353207E-16, -1.000000000000000000 ) ) ;
#72 = DIRECTION ( 'NONE',  ( 3.491481338843133355E-15, -0.000000000000000000, 1.000000000000000000 ) ) ;
#73 = EDGE_CURVE ( 'NONE', #44, #44, #199, .T. ) ;
#74 = FACE_OUTER_BOUND ( 'NONE', #152, .T. ) ;
#75 = PLANE ( 'NONE',  #36 ) ;
#76 = LOCAL_TIME ( 16, 37, 50.00000000000000000, #204 ) ;
#77 = CARTESIAN_POINT ( 'NONE',  ( 3.491481338843129805E-15, 0.000000000000000000, 0.9999999999999988898 ) ) ;
#78 = ADVANCED_FACE ( 'NONE', ( #120, #118 ), #174, .T. ) ;
#79 = ORIENTED_EDGE ( 'NONE', *, *, #58, .T. ) ;
#80 = AXIS2_PLACEMENT_3D ( 'NONE', #26, #138, #195 ) ;
#81 = APPROVAL_STATUS ( 'not_yet_approved' ) ;
#82 = CLOSED_SHELL ( 'NONE', ( #130, #203, #93 ) ) ;
#83 = APPROVAL_STATUS ( 'not_yet_approved' ) ;
#84 = COORDINATED_UNIVERSAL_TIME_OFFSET ( 1, 0, .AHEAD. ) ;
#85 = EDGE_CURVE ( 'NONE', #213, #213, #134, .T. ) ;
#86 = VERTEX_POINT ( 'NONE', #193 ) ;
#87 = CIRCLE ( 'NONE', #216, 0.5000000000000004441 ) ;
#88 = DIRECTION ( 'NONE',  ( 3.491481338843133355E-15, -0.000000000000000000, 1.000000000000000000 ) ) ;
#89 = CIRCLE ( 'NONE', #107, 1.500000000000000000 ) ;
#90 = DIRECTION ( 'NONE',  ( -4.275831445896958607E-31, -1.000000000000000000, -1.224646799147353207E-16 ) ) ;
#91 = VERTEX_POINT ( 'NONE', #133 ) ;
#92 = APPROVAL_PERSON_ORGANIZATION ( #186, #182, #143 ) ;
#93 = ADVANCED_FACE ( 'NONE', ( #194 ), #176, .T. ) ;
#94 = PLANE ( 'NONE',  #67 ) ;
#95 = EDGE_LOOP ( 'NONE', ( #56 ) ) ;
#96 = PERSON_AND_ORGANIZATION ( #144, #117 ) ;
#97 = COORDINATED_UNIVERSAL_TIME_OFFSET ( 1, 0, .AHEAD. ) ;
#98 = DATE_AND_TIME ( #157, #154 ) ;
#99 = DATE_AND_TIME ( #21, #62 ) ;
#100 = APPROVAL_PERSON_ORGANIZATION ( #41, #163, #171 ) ;
#101 = PERSON_AND_ORGANIZATION_ROLE ( 'classification_officer' ) ;
#102 = DIRECTION ( 'NONE',  ( 0.000000000000000000, 1.000000000000000000, 0.000000000000000000 ) ) ;
#103 = CYLINDRICAL_SURFACE ( 'NONE', #145, 0.5000000000000002220 ) ;
#104 = CARTESIAN_POINT ( 'NONE',  ( 1.326762908760390423E-13, 8.998558695971077224E-33, 38.00000000000000000 ) ) ;
#105 = CARTESIAN_POINT ( 'NONE',  ( 1.701393041777655834E-14, 0.000000000000000000, 4.872983346207415245 ) ) ;
#106 = CARTESIAN_POINT ( 'NONE',  ( 1.316288464743861212E-13, -4.616918432785521081E-15, 37.69999999999999574 ) ) ;
#107 = AXIS2_PLACEMENT_3D ( 'NONE', #105, #121, #175 ) ;
#108 = DIRECTION ( 'NONE',  ( 3.491481338843133355E-15, -1.224646799147353207E-16, 1.000000000000000000 ) ) ;
#109 = EDGE_LOOP ( 'NONE', ( #63 ) ) ;
#110 = DATE_TIME_ROLE ( 'classification_date' ) ;
#111 = APPLICATION_PROTOCOL_DEFINITION ( 'international standard', 'config_control_design', 1994, #218 ) ;
#112 = AXIS2_PLACEMENT_3D ( 'NONE', #4, #5, #136 ) ;
#113 = CC_DESIGN_APPROVAL ( #32, ( #219 ) ) ;
#114 = COORDINATED_UNIVERSAL_TIME_OFFSET ( 1, 0, .AHEAD. ) ;
#115 = SECURITY_CLASSIFICATION_LEVEL ( 'unclassified' ) ;
#116 = EDGE_CURVE ( 'NONE', #214, #214, #89, .T. ) ;
#117 = ORGANIZATION ( 'UNSPECIFIED', 'UNSPECIFIED', '' ) ;
#118 = FACE_OUTER_BOUND ( 'NONE', #20, .T. ) ;
#119 = FACE_OUTER_BOUND ( 'NONE', #124, .T. ) ;
#120 = FACE_OUTER_BOUND ( 'NONE', #191, .T. ) ;
#121 = DIRECTION ( 'NONE',  ( 3.491481338843133355E-15, -0.000000000000000000, 1.000000000000000000 ) ) ;
#122 = CALENDAR_DATE ( 2023, 1, 2 ) ;
#123 = EDGE_LOOP ( 'NONE', ( #207 ) ) ;
#124 = EDGE_LOOP ( 'NONE', ( #198 ) ) ;
#125 = TOROIDAL_SURFACE ( 'NONE', #23, 8.500000000000000000, 8.000000000000000000 ) ;
#126 = ORIENTED_EDGE ( 'NONE', *, *, #142, .T. ) ;
#127 = PERSON_AND_ORGANIZATION_ROLE ( 'creator' ) ;
#128 = EDGE_LOOP ( 'NONE', ( #15 ) ) ;
#129 = CARTESIAN_POINT ( 'NONE',  ( 0.000000000000000000, 0.000000000000000000, 0.000000000000000000 ) ) ;
#130 = ADVANCED_FACE ( 'NONE', ( #160 ), #8, .T. ) ;
#131 = PERSON_AND_ORGANIZATION ( #144, #117 ) ;
#132 = CARTESIAN_POINT ( 'NONE',  ( 3.491481338843133355E-15, 0.000000000000000000, 1.000000000000000000 ) ) ;
#133 = CARTESIAN_POINT ( 'NONE',  ( 1.326762908760390423E-13, 1.199999999999995293, 38.00000000000000000 ) ) ;
#134 = CIRCLE ( 'NONE', #6, 0.5000000000000004441 ) ;
#135 = DIRECTION ( 'NONE',  ( 1.000000000000000000, 0.000000000000000000, -3.491481338843133355E-15 ) ) ;
#136 = DIRECTION ( 'NONE',  ( 4.275831445896959482E-31, 1.000000000000000000, 1.224646799147353207E-16 ) ) ;
#137 = CC_DESIGN_DATE_AND_TIME_ASSIGNMENT ( #155, #192, ( #223 ) ) ;
#138 = DIRECTION ( 'NONE',  ( 3.491481338843133355E-15, -0.000000000000000000, 1.000000000000000000 ) ) ;
#139 = DIRECTION ( 'NONE',  ( -3.491481338843133355E-15, 1.224646799147353207E-16, -1.000000000000000000 ) ) ;
#140 = DIRECTION ( 'NONE',  ( 3.491481338843133355E-15, -0.000000000000000000, 1.000000000000000000 ) ) ;
#141 = AXIS2_PLACEMENT_3D ( 'NONE', #46, #68, #29 ) ;
#142 = EDGE_CURVE ( 'NONE', #59, #59, #221, .T. ) ;
#143 = APPROVAL_ROLE ( '' ) ;
#144 = PERSON ( 'UNSPECIFIED', 'UNSPECIFIED', 'UNSPECIFIED', ('UNSPECIFIED'), ('UNSPECIFIED'), ('UNSPECIFIED') ) ;
#145 = AXIS2_PLACEMENT_3D ( 'NONE', #49, #72, #158 ) ;
#146 = CALENDAR_DATE ( 2023, 1, 2 ) ;
#147 = CARTESIAN_POINT ( 'NONE',  ( 0.5000000000000000000, 0.000000000000000000, -2.113134709165772517E-15 ) ) ;
#148 = CARTESIAN_POINT ( 'NONE',  ( 0.5000000000000038858, 0.000000000000000000, 0.9999999999999972244 ) ) ;
#149 = CARTESIAN_POINT ( 'NONE',  ( 1.316288464743861212E-13, -4.616918432785521081E-15, 37.69999999999999574 ) ) ;
#150 = PRODUCT_DEFINITION_SHAPE ( 'NONE', 'NONE',  #223 ) ;
#151 = LOCAL_TIME ( 16, 37, 50.00000000000000000, #84 ) ;
#152 = EDGE_LOOP ( 'NONE', ( #217 ) ) ;
#153 = PERSON_AND_ORGANIZATION_ROLE ( 'creator' ) ;
#154 = LOCAL_TIME ( 16, 37, 50.00000000000000000, #114 ) ;
#155 = DATE_AND_TIME ( #208, #173 ) ;
#156 = APPROVAL_DATE_TIME ( #98, #163 ) ;
#157 = CALENDAR_DATE ( 2023, 1, 2 ) ;
#158 = DIRECTION ( 'NONE',  ( 1.000000000000000000, 0.000000000000000000, -3.491481338843133355E-15 ) ) ;
#159 = DIRECTION ( 'NONE',  ( 0.000000000000000000, 1.000000000000000000, 0.000000000000000000 ) ) ;
#160 = FACE_OUTER_BOUND ( 'NONE', #109, .T. ) ;
#161 = FACE_OUTER_BOUND ( 'NONE', #95, .T. ) ;
#162 = SHAPE_DEFINITION_REPRESENTATION ( #150, #11 ) ;
#163 = APPROVAL ( #83, 'UNSPECIFIED' ) ;
#164 = AXIS2_PLACEMENT_3D ( 'NONE', #54, #139, #181 ) ;
#165 = AXIS2_PLACEMENT_3D ( 'NONE', #149, #27, #102 ) ;
#166 = FACE_OUTER_BOUND ( 'NONE', #38, .T. ) ;
#167 = DIRECTION ( 'NONE',  ( -4.275831445896958607E-31, -1.000000000000000000, -1.224646799147353207E-16 ) ) ;
#168 = APPROVAL_STATUS ( 'not_yet_approved' ) ;
#169 = APPLICATION_PROTOCOL_DEFINITION ( 'international standard', 'config_control_design', 1994, #17 ) ;
#170 = CONICAL_SURFACE ( 'NONE', #205, 1.499999999999999778, 0.7853981633974453924 ) ;
#171 = APPROVAL_ROLE ( '' ) ;
#172 = PERSON_AND_ORGANIZATION ( #144, #117 ) ;
#173 = LOCAL_TIME ( 16, 37, 50.00000000000000000, #97 ) ;
#174 = CYLINDRICAL_SURFACE ( 'NONE', #112, 1.500000000000000000 ) ;
#175 = DIRECTION ( 'NONE',  ( -1.000000000000000000, 0.000000000000000000, 3.469446951953614189E-15 ) ) ;
#176 = PLANE ( 'NONE',  #141 ) ;
#177 = CIRCLE ( 'NONE', #164, 1.199999999999999956 ) ;
#178 = CC_DESIGN_SECURITY_CLASSIFICATION ( #219, ( #34 ) ) ;
#179 = DIRECTION ( 'NONE',  ( 3.491481338843133355E-15, -1.224646799147353207E-16, 1.000000000000000000 ) ) ;
#180 = APPROVAL_PERSON_ORGANIZATION ( #96, #32, #18 ) ;
#181 = DIRECTION ( 'NONE',  ( 0.000000000000000000, 1.000000000000000000, 0.000000000000000000 ) ) ;
#182 = APPROVAL ( #81, 'UNSPECIFIED' ) ;
#183 = EDGE_LOOP ( 'NONE', ( #220 ) ) ;
#184 = CC_DESIGN_DATE_AND_TIME_ASSIGNMENT ( #39, #110, ( #219 ) ) ;
#185 = ORIENTED_EDGE ( 'NONE', *, *, #58, .F. ) ;
#186 = PERSON_AND_ORGANIZATION ( #144, #117 ) ;
#187 = DIRECTION ( 'NONE',  ( 3.491481338843133355E-15, -0.000000000000000000, 1.000000000000000000 ) ) ;
#188 = PERSON_AND_ORGANIZATION_ROLE ( 'design_owner' ) ;
#189 = COORDINATED_UNIVERSAL_TIME_OFFSET ( 1, 0, .AHEAD. ) ;
#190 = MANIFOLD_SOLID_BREP ( 'Corps-Déplacer/Copier1[1]', #14 ) ;
#191 = EDGE_LOOP ( 'NONE', ( #126 ) ) ;
#192 = DATE_TIME_ROLE ( 'creation_date' ) ;
#193 = CARTESIAN_POINT ( 'NONE',  ( 0.5000000000000038858, 0.000000000000000000, 0.9999999999999972244 ) ) ;
#194 = FACE_OUTER_BOUND ( 'NONE', #209, .T. ) ;
#195 = DIRECTION ( 'NONE',  ( 1.000000000000000000, 0.000000000000000000, -3.491481338843133355E-15 ) ) ;
#196 = CARTESIAN_POINT ( 'NONE',  ( 3.491481338843129805E-15, 0.000000000000000000, 0.9999999999999988898 ) ) ;
#197 = CC_DESIGN_PERSON_AND_ORGANIZATION_ASSIGNMENT ( #172, #101, ( #219 ) ) ;
#198 = ORIENTED_EDGE ( 'NONE', *, *, #142, .F. ) ;
#199 = CIRCLE ( 'NONE', #80, 0.5000000000000000000 ) ;
#200 = CARTESIAN_POINT ( 'NONE',  ( 3.491481338843133355E-15, -1.445602896647339163E-16, 1.000000000000000000 ) ) ;
#201 = DIRECTION ( 'NONE',  ( 1.000000000000000000, 0.000000000000000000, -3.469446951953611033E-15 ) ) ;
#202 = FACE_OUTER_BOUND ( 'NONE', #53, .T. ) ;
#203 = ADVANCED_FACE ( 'NONE', ( #161, #215 ), #103, .T. ) ;
#204 = COORDINATED_UNIVERSAL_TIME_OFFSET ( 1, 0, .AHEAD. ) ;
#205 = AXIS2_PLACEMENT_3D ( 'NONE', #106, #71, #159 ) ;
#206 = PRODUCT ( '977823', '977823', '', ( #66 ) ) ;
#207 = ORIENTED_EDGE ( 'NONE', *, *, #85, .F. ) ;
#208 = CALENDAR_DATE ( 2023, 1, 2 ) ;
#209 = EDGE_LOOP ( 'NONE', ( #35 ) ) ;
#210 = PERSON_AND_ORGANIZATION ( #144, #117 ) ;
#211 = PRODUCT_RELATED_PRODUCT_CATEGORY ( 'detail', '', ( #206 ) ) ;
#212 =( LENGTH_UNIT ( ) NAMED_UNIT ( * ) SI_UNIT ( .MILLI., .METRE. ) );
#213 = VERTEX_POINT ( 'NONE', #148 ) ;
#214 = VERTEX_POINT ( 'NONE', #1 ) ;
#215 = FACE_OUTER_BOUND ( 'NONE', #123, .T. ) ;
#216 = AXIS2_PLACEMENT_3D ( 'NONE', #77, #140, #201 ) ;
#217 = ORIENTED_EDGE ( 'NONE', *, *, #116, .F. ) ;
#218 = APPLICATION_CONTEXT ( 'configuration controlled 3d designs of mechanical parts and assemblies' ) ;
#219 = SECURITY_CLASSIFICATION ( '', '', #115 ) ;
#220 = ORIENTED_EDGE ( 'NONE', *, *, #9, .F. ) ;
#221 = CIRCLE ( 'NONE', #165, 1.499999999999999778 ) ;
#222 = APPROVAL_DATE_TIME ( #99, #182 ) ;
#223 = PRODUCT_DEFINITION ( 'UNKNOWN', '', #34, #57 ) ;
ENDSEC;
END-ISO-10303-21;
