ISO-10303-21;
HEADER;
FILE_DESCRIPTION (( 'STEP AP203' ),
    '1' );
FILE_NAME ('977822.step',
    '2023-02-01T15:37:49',
    ( '' ),
    ( '' ),
    'SwSTEP 2.0',
    'SolidWorks 2019',
    '' );
FILE_SCHEMA (( 'CONFIG_CONTROL_DESIGN' ));
ENDSEC;

DATA;
#1 = APPROVAL ( #141, 'UNSPECIFIED' ) ;
#2 = CARTESIAN_POINT ( 'NONE',  ( 3.142333204958819231E-15, -1.301042606982604828E-16, 0.8999999999999998002 ) ) ;
#3 = VERTEX_POINT ( 'NONE', #70 ) ;
#4 = AXIS2_PLACEMENT_3D ( 'NONE', #61, #219, #27 ) ;
#5 = LOCAL_TIME ( 16, 37, 49.00000000000000000, #171 ) ;
#6 = DIRECTION ( 'NONE',  ( 3.491481338843133355E-15, -0.000000000000000000, 1.000000000000000000 ) ) ;
#7 = FACE_OUTER_BOUND ( 'NONE', #114, .T. ) ;
#8 = ADVANCED_FACE ( 'NONE', ( #218, #30 ), #88, .T. ) ;
#9 = PLANE ( 'NONE',  #180 ) ;
#10 = CC_DESIGN_PERSON_AND_ORGANIZATION_ASSIGNMENT ( #39, #81, ( #177 ) ) ;
#11 = CARTESIAN_POINT ( 'NONE',  ( 0.000000000000000000, 0.000000000000000000, 0.000000000000000000 ) ) ;
#12 = DIRECTION ( 'NONE',  ( -3.491481338843133355E-15, 1.224646799147353207E-16, -1.000000000000000000 ) ) ;
#13 = CARTESIAN_POINT ( 'NONE',  ( 0.000000000000000000, 0.000000000000000000, 0.000000000000000000 ) ) ;
#14 = AXIS2_PLACEMENT_3D ( 'NONE', #196, #64, #162 ) ;
#15 = PLANE ( 'NONE',  #175 ) ;
#16 = ADVANCED_BREP_SHAPE_REPRESENTATION ( '977822', ( #44, #111, #84 ), #32 ) ;
#17 = ADVANCED_FACE ( 'NONE', ( #127 ), #150, .T. ) ;
#18 = CALENDAR_DATE ( 2023, 1, 2 ) ;
#19 = EDGE_LOOP ( 'NONE', ( #185 ) ) ;
#20 = DATE_AND_TIME ( #190, #167 ) ;
#21 = PERSON_AND_ORGANIZATION ( #40, #215 ) ;
#22 = LOCAL_TIME ( 16, 37, 49.00000000000000000, #170 ) ;
#23 = PERSON_AND_ORGANIZATION_ROLE ( 'creator' ) ;
#24 = DIRECTION ( 'NONE',  ( 3.491481338843133355E-15, -0.000000000000000000, 1.000000000000000000 ) ) ;
#25 =( LENGTH_UNIT ( ) NAMED_UNIT ( * ) SI_UNIT ( .MILLI., .METRE. ) );
#26 = PRODUCT_DEFINITION ( 'UNKNOWN', '', #104, #223 ) ;
#27 = DIRECTION ( 'NONE',  ( 4.275831445896958607E-31, 1.000000000000000000, 1.224646799147353207E-16 ) ) ;
#28 = AXIS2_PLACEMENT_3D ( 'NONE', #172, #42, #159 ) ;
#29 = APPROVAL_PERSON_ORGANIZATION ( #51, #173, #187 ) ;
#30 = FACE_OUTER_BOUND ( 'NONE', #68, .T. ) ;
#31 = ORIENTED_EDGE ( 'NONE', *, *, #134, .T. ) ;
#32 =( GEOMETRIC_REPRESENTATION_CONTEXT ( 3 ) GLOBAL_UNCERTAINTY_ASSIGNED_CONTEXT ( ( #137 ) ) GLOBAL_UNIT_ASSIGNED_CONTEXT ( ( #25, #176, #193 ) ) REPRESENTATION_CONTEXT ( 'NONE', 'WORKASPACE' ) );
#33 = CC_DESIGN_SECURITY_CLASSIFICATION ( #177, ( #104 ) ) ;
#34 = PERSON_AND_ORGANIZATION ( #40, #215 ) ;
#35 = CC_DESIGN_DATE_AND_TIME_ASSIGNMENT ( #20, #96, ( #177 ) ) ;
#36 = ORIENTED_EDGE ( 'NONE', *, *, #124, .T. ) ;
#37 = DATE_TIME_ROLE ( 'creation_date' ) ;
#38 = CALENDAR_DATE ( 2023, 1, 2 ) ;
#39 = PERSON_AND_ORGANIZATION ( #40, #215 ) ;
#40 = PERSON ( 'UNSPECIFIED', 'UNSPECIFIED', 'UNSPECIFIED', ('UNSPECIFIED'), ('UNSPECIFIED'), ('UNSPECIFIED') ) ;
#41 = AXIS2_PLACEMENT_3D ( 'NONE', #93, #78, #130 ) ;
#42 = DIRECTION ( 'NONE',  ( 3.491481338843133355E-15, -0.000000000000000000, 1.000000000000000000 ) ) ;
#43 = CC_DESIGN_PERSON_AND_ORGANIZATION_ASSIGNMENT ( #21, #101, ( #205 ) ) ;
#44 = MANIFOLD_SOLID_BREP ( 'Corps-Déplacer/Copier1[1]', #126 ) ;
#45 = FACE_OUTER_BOUND ( 'NONE', #100, .T. ) ;
#46 = CARTESIAN_POINT ( 'NONE',  ( 1.697560694421307842E-14, 0.000000000000000000, 4.862007067131503213 ) ) ;
#47 = CARTESIAN_POINT ( 'NONE',  ( 1.326762908760390423E-13, 8.998558695971077224E-33, 38.00000000000000000 ) ) ;
#48 = ADVANCED_FACE ( 'NONE', ( #45, #161 ), #49, .T. ) ;
#49 = CYLINDRICAL_SURFACE ( 'NONE', #76, 1.500000000000000000 ) ;
#50 = FACE_OUTER_BOUND ( 'NONE', #135, .T. ) ;
#51 = PERSON_AND_ORGANIZATION ( #40, #215 ) ;
#52 = AXIS2_PLACEMENT_3D ( 'NONE', #2, #155, #194 ) ;
#53 = APPLICATION_PROTOCOL_DEFINITION ( 'international standard', 'config_control_design', 1994, #62 ) ;
#54 = PERSON_AND_ORGANIZATION ( #40, #215 ) ;
#55 = CIRCLE ( 'NONE', #160, 1.499999999999999778 ) ;
#56 = CC_DESIGN_PERSON_AND_ORGANIZATION_ASSIGNMENT ( #34, #67, ( #104 ) ) ;
#57 = FACE_OUTER_BOUND ( 'NONE', #77, .T. ) ;
#58 = EDGE_LOOP ( 'NONE', ( #36 ) ) ;
#59 = DIRECTION ( 'NONE',  ( -3.491481338843133355E-15, 1.224646799147353207E-16, -1.000000000000000000 ) ) ;
#60 = DIRECTION ( 'NONE',  ( 3.491481338843133355E-15, -0.000000000000000000, 1.000000000000000000 ) ) ;
#61 = CARTESIAN_POINT ( 'NONE',  ( -3.206873584422719393E-31, 1.124819836996393206E-32, -9.184850993605149670E-17 ) ) ;
#62 = APPLICATION_CONTEXT ( 'configuration controlled 3d designs of mechanical parts and assemblies' ) ;
#63 = DIRECTION ( 'NONE',  ( 1.000000000000000000, 0.000000000000000000, -3.491481338843133750E-15 ) ) ;
#64 = DIRECTION ( 'NONE',  ( 3.491481338843133355E-15, -0.000000000000000000, 1.000000000000000000 ) ) ;
#65 = ADVANCED_FACE ( 'NONE', ( #128, #110 ), #71, .F. ) ;
#66 = CIRCLE ( 'NONE', #122, 0.4500000000000007327 ) ;
#67 = PERSON_AND_ORGANIZATION_ROLE ( 'creator' ) ;
#68 = EDGE_LOOP ( 'NONE', ( #91 ) ) ;
#69 = COORDINATED_UNIVERSAL_TIME_OFFSET ( 1, 0, .AHEAD. ) ;
#70 = CARTESIAN_POINT ( 'NONE',  ( 1.326762908760390423E-13, 1.199999999999995293, 38.00000000000000000 ) ) ;
#71 = TOROIDAL_SURFACE ( 'NONE', #14, 8.450000000000001066, 8.000000000000000000 ) ;
#72 = VERTEX_POINT ( 'NONE', #143 ) ;
#73 = CARTESIAN_POINT ( 'NONE',  ( 3.142333204958819231E-15, -1.301042606982604828E-16, 0.8999999999999998002 ) ) ;
#74 = DIRECTION ( 'NONE',  ( 3.491481338843133355E-15, -1.224646799147353207E-16, 1.000000000000000000 ) ) ;
#75 = EDGE_CURVE ( 'NONE', #87, #87, #55, .T. ) ;
#76 = AXIS2_PLACEMENT_3D ( 'NONE', #11, #59, #217 ) ;
#77 = EDGE_LOOP ( 'NONE', ( #95 ) ) ;
#78 = DIRECTION ( 'NONE',  ( -3.491481338843133355E-15, 1.224646799147353207E-16, -1.000000000000000000 ) ) ;
#79 = DIRECTION ( 'NONE',  ( 4.275831445896958607E-31, 1.000000000000000000, 1.224646799147353207E-16 ) ) ;
#80 = ORIENTED_EDGE ( 'NONE', *, *, #182, .F. ) ;
#81 = PERSON_AND_ORGANIZATION_ROLE ( 'classification_officer' ) ;
#82 = APPROVAL_ROLE ( '' ) ;
#83 = PERSON_AND_ORGANIZATION_ROLE ( 'design_supplier' ) ;
#84 = AXIS2_PLACEMENT_3D ( 'NONE', #108, #153, #210 ) ;
#85 = COORDINATED_UNIVERSAL_TIME_OFFSET ( 1, 0, .AHEAD. ) ;
#86 = CARTESIAN_POINT ( 'NONE',  ( 3.142333204958816470E-15, 0.000000000000000000, 0.8999999999999990230 ) ) ;
#87 = VERTEX_POINT ( 'NONE', #121 ) ;
#88 = CONICAL_SURFACE ( 'NONE', #41, 1.499999999999999778, 0.7853981633974453924 ) ;
#89 = DIRECTION ( 'NONE',  ( 3.491481338843133355E-15, -0.000000000000000000, 1.000000000000000000 ) ) ;
#90 = DIRECTION ( 'NONE',  ( -4.275831445896958607E-31, -1.000000000000000000, -1.224646799147353207E-16 ) ) ;
#91 = ORIENTED_EDGE ( 'NONE', *, *, #75, .F. ) ;
#92 = DIRECTION ( 'NONE',  ( 0.000000000000000000, 1.000000000000000000, 0.000000000000000000 ) ) ;
#93 = CARTESIAN_POINT ( 'NONE',  ( 1.316288464743861212E-13, -4.616918432785521081E-15, 37.69999999999999574 ) ) ;
#94 = FACE_OUTER_BOUND ( 'NONE', #222, .T. ) ;
#95 = ORIENTED_EDGE ( 'NONE', *, *, #145, .T. ) ;
#96 = DATE_TIME_ROLE ( 'classification_date' ) ;
#97 = EDGE_LOOP ( 'NONE', ( #199 ) ) ;
#98 = DATE_AND_TIME ( #139, #5 ) ;
#99 = AXIS2_PLACEMENT_3D ( 'NONE', #46, #6, #184 ) ;
#100 = EDGE_LOOP ( 'NONE', ( #152 ) ) ;
#101 = PERSON_AND_ORGANIZATION_ROLE ( 'design_owner' ) ;
#102 = SECURITY_CLASSIFICATION_LEVEL ( 'unclassified' ) ;
#103 = CC_DESIGN_PERSON_AND_ORGANIZATION_ASSIGNMENT ( #169, #83, ( #104 ) ) ;
#104 = PRODUCT_DEFINITION_FORMATION_WITH_SPECIFIED_SOURCE ( 'ANY', '', #205, .NOT_KNOWN. ) ;
#105 = PLANE ( 'NONE',  #52 ) ;
#106 = DIRECTION ( 'NONE',  ( 1.000000000000000000, 0.000000000000000000, -3.373073425510452936E-15 ) ) ;
#107 = ADVANCED_FACE ( 'NONE', ( #94 ), #15, .F. ) ;
#108 = CARTESIAN_POINT ( 'NONE',  ( 0.000000000000000000, 0.000000000000000000, 0.000000000000000000 ) ) ;
#109 = CARTESIAN_POINT ( 'NONE',  ( 1.316288464743861212E-13, -4.616918432785521081E-15, 37.69999999999999574 ) ) ;
#110 = FACE_OUTER_BOUND ( 'NONE', #97, .T. ) ;
#111 = MANIFOLD_SOLID_BREP ( 'Corps-Déplacer/Copier1[2]', #186 ) ;
#112 = FACE_OUTER_BOUND ( 'NONE', #19, .T. ) ;
#113 = APPROVAL_PERSON_ORGANIZATION ( #54, #211, #82 ) ;
#114 = EDGE_LOOP ( 'NONE', ( #164 ) ) ;
#115 = PERSON_AND_ORGANIZATION ( #40, #215 ) ;
#116 = AXIS2_PLACEMENT_3D ( 'NONE', #13, #60, #63 ) ;
#117 = ORIENTED_EDGE ( 'NONE', *, *, #182, .T. ) ;
#118 = ADVANCED_FACE ( 'NONE', ( #50, #112 ), #181, .T. ) ;
#119 = DATE_AND_TIME ( #38, #146 ) ;
#120 = CARTESIAN_POINT ( 'NONE',  ( 3.142333204958816470E-15, 0.000000000000000000, 0.8999999999999990230 ) ) ;
#121 = CARTESIAN_POINT ( 'NONE',  ( 1.316288464743861212E-13, 1.499999999999995337, 37.69999999999999574 ) ) ;
#122 = AXIS2_PLACEMENT_3D ( 'NONE', #120, #24, #106 ) ;
#123 = CARTESIAN_POINT ( 'NONE',  ( 0.4500000000000038969, 0.000000000000000000, 0.8999999999999974687 ) ) ;
#124 = EDGE_CURVE ( 'NONE', #3, #3, #166, .T. ) ;
#125 = DIRECTION ( 'NONE',  ( 1.000000000000000000, 0.000000000000000000, -3.373073425510452936E-15 ) ) ;
#126 = CLOSED_SHELL ( 'NONE', ( #48, #8, #107, #65, #151 ) ) ;
#127 = FACE_OUTER_BOUND ( 'NONE', #138, .T. ) ;
#128 = FACE_OUTER_BOUND ( 'NONE', #188, .T. ) ;
#129 = AXIS2_PLACEMENT_3D ( 'NONE', #86, #89, #125 ) ;
#130 = DIRECTION ( 'NONE',  ( 0.000000000000000000, 1.000000000000000000, 0.000000000000000000 ) ) ;
#131 = CARTESIAN_POINT ( 'NONE',  ( 1.326762908760390423E-13, -4.653657836759941941E-15, 38.00000000000000000 ) ) ;
#132 = CC_DESIGN_PERSON_AND_ORGANIZATION_ASSIGNMENT ( #183, #23, ( #26 ) ) ;
#133 = COORDINATED_UNIVERSAL_TIME_OFFSET ( 1, 0, .AHEAD. ) ;
#134 = EDGE_CURVE ( 'NONE', #72, #72, #198, .T. ) ;
#135 = EDGE_LOOP ( 'NONE', ( #117 ) ) ;
#136 = CALENDAR_DATE ( 2023, 1, 2 ) ;
#137 = UNCERTAINTY_MEASURE_WITH_UNIT (LENGTH_MEASURE( 1.000000000000000082E-05 ), #25, 'distance_accuracy_value', 'NONE');
#138 = EDGE_LOOP ( 'NONE', ( #80 ) ) ;
#139 = CALENDAR_DATE ( 2023, 1, 2 ) ;
#140 = MECHANICAL_CONTEXT ( 'NONE', #142, 'mechanical' ) ;
#141 = APPROVAL_STATUS ( 'not_yet_approved' ) ;
#142 = APPLICATION_CONTEXT ( 'configuration controlled 3d designs of mechanical parts and assemblies' ) ;
#143 = CARTESIAN_POINT ( 'NONE',  ( -1.499999999999983125, 0.000000000000000000, 4.862007067131508542 ) ) ;
#144 = PRODUCT_DEFINITION_SHAPE ( 'NONE', 'NONE',  #26 ) ;
#145 = EDGE_CURVE ( 'NONE', #213, #213, #66, .T. ) ;
#146 = LOCAL_TIME ( 16, 37, 49.00000000000000000, #85 ) ;
#147 = LOCAL_TIME ( 16, 37, 49.00000000000000000, #69 ) ;
#148 = ORIENTED_EDGE ( 'NONE', *, *, #124, .F. ) ;
#149 = AXIS2_PLACEMENT_3D ( 'NONE', #131, #202, #200 ) ;
#150 = PLANE ( 'NONE',  #4 ) ;
#151 = ADVANCED_FACE ( 'NONE', ( #7 ), #9, .F. ) ;
#152 = ORIENTED_EDGE ( 'NONE', *, *, #75, .T. ) ;
#153 = DIRECTION ( 'NONE',  ( 0.000000000000000000, 0.000000000000000000, 1.000000000000000000 ) ) ;
#154 = APPROVAL_STATUS ( 'not_yet_approved' ) ;
#155 = DIRECTION ( 'NONE',  ( 3.491481338843133355E-15, -1.224646799147353207E-16, 1.000000000000000000 ) ) ;
#156 = CARTESIAN_POINT ( 'NONE',  ( 0.4499999999999999001, 0.000000000000000000, -1.938560642223615849E-15 ) ) ;
#157 = APPROVAL_PERSON_ORGANIZATION ( #115, #1, #189 ) ;
#158 = APPLICATION_PROTOCOL_DEFINITION ( 'international standard', 'config_control_design', 1994, #142 ) ;
#159 = DIRECTION ( 'NONE',  ( 1.000000000000000000, 0.000000000000000000, -3.491481338843133750E-15 ) ) ;
#160 = AXIS2_PLACEMENT_3D ( 'NONE', #109, #178, #92 ) ;
#161 = FACE_OUTER_BOUND ( 'NONE', #201, .T. ) ;
#162 = DIRECTION ( 'NONE',  ( 1.000000000000000000, 0.000000000000000000, -3.491481338843133355E-15 ) ) ;
#163 = DATE_AND_TIME ( #18, #22 ) ;
#164 = ORIENTED_EDGE ( 'NONE', *, *, #179, .F. ) ;
#165 = SHAPE_DEFINITION_REPRESENTATION ( #144, #16 ) ;
#166 = CIRCLE ( 'NONE', #149, 1.199999999999999956 ) ;
#167 = LOCAL_TIME ( 16, 37, 49.00000000000000000, #133 ) ;
#168 = ORIENTED_EDGE ( 'NONE', *, *, #134, .F. ) ;
#169 = PERSON_AND_ORGANIZATION ( #40, #215 ) ;
#170 = COORDINATED_UNIVERSAL_TIME_OFFSET ( 1, 0, .AHEAD. ) ;
#171 = COORDINATED_UNIVERSAL_TIME_OFFSET ( 1, 0, .AHEAD. ) ;
#172 = CARTESIAN_POINT ( 'NONE',  ( -1.282749433769087757E-30, 0.000000000000000000, -3.673940397442059868E-16 ) ) ;
#173 = APPROVAL ( #154, 'UNSPECIFIED' ) ;
#174 = CARTESIAN_POINT ( 'NONE',  ( 0.4500000000000038969, 0.000000000000000000, 0.8999999999999974687 ) ) ;
#175 = AXIS2_PLACEMENT_3D ( 'NONE', #47, #12, #79 ) ;
#176 =( NAMED_UNIT ( * ) PLANE_ANGLE_UNIT ( ) SI_UNIT ( $, .RADIAN. ) );
#177 = SECURITY_CLASSIFICATION ( '', '', #102 ) ;
#178 = DIRECTION ( 'NONE',  ( -3.491481338843133355E-15, 1.224646799147353207E-16, -1.000000000000000000 ) ) ;
#179 = EDGE_CURVE ( 'NONE', #191, #191, #192, .T. ) ;
#180 = AXIS2_PLACEMENT_3D ( 'NONE', #73, #74, #90 ) ;
#181 = CYLINDRICAL_SURFACE ( 'NONE', #116, 0.4500000000000002887 ) ;
#182 = EDGE_CURVE ( 'NONE', #214, #214, #208, .T. ) ;
#183 = PERSON_AND_ORGANIZATION ( #40, #215 ) ;
#184 = DIRECTION ( 'NONE',  ( -1.000000000000000000, 0.000000000000000000, 3.469446951953614189E-15 ) ) ;
#185 = ORIENTED_EDGE ( 'NONE', *, *, #145, .F. ) ;
#186 = CLOSED_SHELL ( 'NONE', ( #195, #118, #17 ) ) ;
#187 = APPROVAL_ROLE ( '' ) ;
#188 = EDGE_LOOP ( 'NONE', ( #168 ) ) ;
#189 = APPROVAL_ROLE ( '' ) ;
#190 = CALENDAR_DATE ( 2023, 1, 2 ) ;
#191 = VERTEX_POINT ( 'NONE', #174 ) ;
#192 = CIRCLE ( 'NONE', #129, 0.4500000000000007327 ) ;
#193 =( NAMED_UNIT ( * ) SI_UNIT ( $, .STERADIAN. ) SOLID_ANGLE_UNIT ( ) );
#194 = DIRECTION ( 'NONE',  ( -4.275831445896958607E-31, -1.000000000000000000, -1.224646799147353207E-16 ) ) ;
#195 = ADVANCED_FACE ( 'NONE', ( #57 ), #105, .T. ) ;
#196 = CARTESIAN_POINT ( 'NONE',  ( 3.142333204958820020E-15, 0.000000000000000000, 0.9000000000000000222 ) ) ;
#197 = PRODUCT_RELATED_PRODUCT_CATEGORY ( 'detail', '', ( #205 ) ) ;
#198 = CIRCLE ( 'NONE', #99, 1.500000000000000000 ) ;
#199 = ORIENTED_EDGE ( 'NONE', *, *, #179, .T. ) ;
#200 = DIRECTION ( 'NONE',  ( 0.000000000000000000, 1.000000000000000000, 0.000000000000000000 ) ) ;
#201 = EDGE_LOOP ( 'NONE', ( #31 ) ) ;
#202 = DIRECTION ( 'NONE',  ( -3.491481338843133355E-15, 1.224646799147353207E-16, -1.000000000000000000 ) ) ;
#203 = CC_DESIGN_DATE_AND_TIME_ASSIGNMENT ( #119, #37, ( #26 ) ) ;
#204 = CC_DESIGN_APPROVAL ( #211, ( #26 ) ) ;
#205 = PRODUCT ( '977822', '977822', '', ( #140 ) ) ;
#206 = APPROVAL_DATE_TIME ( #163, #211 ) ;
#207 = APPROVAL_DATE_TIME ( #212, #1 ) ;
#208 = CIRCLE ( 'NONE', #28, 0.4499999999999999001 ) ;
#209 = APPROVAL_DATE_TIME ( #98, #173 ) ;
#210 = DIRECTION ( 'NONE',  ( 1.000000000000000000, 0.000000000000000000, 0.000000000000000000 ) ) ;
#211 = APPROVAL ( #221, 'UNSPECIFIED' ) ;
#212 = DATE_AND_TIME ( #136, #147 ) ;
#213 = VERTEX_POINT ( 'NONE', #123 ) ;
#214 = VERTEX_POINT ( 'NONE', #156 ) ;
#215 = ORGANIZATION ( 'UNSPECIFIED', 'UNSPECIFIED', '' ) ;
#216 = CC_DESIGN_APPROVAL ( #1, ( #104 ) ) ;
#217 = DIRECTION ( 'NONE',  ( 4.275831445896959482E-31, 1.000000000000000000, 1.224646799147353207E-16 ) ) ;
#218 = FACE_BOUND ( 'NONE', #58, .T. ) ;
#219 = DIRECTION ( 'NONE',  ( -3.491481338843133355E-15, 1.224646799147353207E-16, -1.000000000000000000 ) ) ;
#220 = CC_DESIGN_APPROVAL ( #173, ( #177 ) ) ;
#221 = APPROVAL_STATUS ( 'not_yet_approved' ) ;
#222 = EDGE_LOOP ( 'NONE', ( #148 ) ) ;
#223 = DESIGN_CONTEXT ( 'detailed design', #62, 'design' ) ;
ENDSEC;
END-ISO-10303-21;
