ISO-10303-21;
HEADER;
FILE_DESCRIPTION (( 'STEP AP203' ),
    '1' );
FILE_NAME ('977821.step',
    '2023-02-01T15:37:48',
    ( '' ),
    ( '' ),
    'SwSTEP 2.0',
    'SolidWorks 2019',
    '' );
FILE_SCHEMA (( 'CONFIG_CONTROL_DESIGN' ));
ENDSEC;

DATA;
#1 = PRODUCT_DEFINITION_FORMATION_WITH_SPECIFIED_SOURCE ( 'ANY', '', #152, .NOT_KNOWN. ) ;
#2 = EDGE_CURVE ( 'NONE', #175, #175, #34, .T. ) ;
#3 = CARTESIAN_POINT ( 'NONE',  ( 1.326762908760390423E-13, -4.653657836759941941E-15, 38.00000000000000000 ) ) ;
#4 = CARTESIAN_POINT ( 'NONE',  ( 2.793185071074503529E-15, 0.000000000000000000, 0.7999999999999990452 ) ) ;
#5 = DIRECTION ( 'NONE',  ( 1.000000000000000000, 0.000000000000000000, -3.523657060577895721E-15 ) ) ;
#6 = EDGE_CURVE ( 'NONE', #140, #140, #38, .T. ) ;
#7 = CARTESIAN_POINT ( 'NONE',  ( 2.793185071074506290E-15, -1.156482317317871232E-16, 0.7999999999999998224 ) ) ;
#8 = FACE_OUTER_BOUND ( 'NONE', #33, .T. ) ;
#9 = AXIS2_PLACEMENT_3D ( 'NONE', #121, #50, #99 ) ;
#10 = LOCAL_TIME ( 16, 37, 48.00000000000000000, #150 ) ;
#11 = EDGE_LOOP ( 'NONE', ( #197 ) ) ;
#12 = EDGE_LOOP ( 'NONE', ( #31 ) ) ;
#13 = APPROVAL_ROLE ( '' ) ;
#14 = UNCERTAINTY_MEASURE_WITH_UNIT (LENGTH_MEASURE( 1.000000000000000082E-05 ), #36, 'distance_accuracy_value', 'NONE');
#15 = ADVANCED_FACE ( 'NONE', ( #8, #100 ), #166, .T. ) ;
#16 = CARTESIAN_POINT ( 'NONE',  ( -3.206873584422719393E-31, 1.124819836996393206E-32, -9.184850993605149670E-17 ) ) ;
#17 = CALENDAR_DATE ( 2023, 1, 2 ) ;
#18 = PERSON_AND_ORGANIZATION ( #190, #21 ) ;
#19 = APPROVAL_DATE_TIME ( #95, #25 ) ;
#20 = EDGE_CURVE ( 'NONE', #59, #59, #195, .T. ) ;
#21 = ORGANIZATION ( 'UNSPECIFIED', 'UNSPECIFIED', '' ) ;
#22 = FACE_OUTER_BOUND ( 'NONE', #125, .T. ) ;
#23 = PERSON_AND_ORGANIZATION ( #190, #21 ) ;
#24 = CARTESIAN_POINT ( 'NONE',  ( -1.282749433769087757E-30, 0.000000000000000000, -3.673940397442059868E-16 ) ) ;
#25 = APPROVAL ( #173, 'UNSPECIFIED' ) ;
#26 = AXIS2_PLACEMENT_3D ( 'NONE', #165, #198, #85 ) ;
#27 = DIRECTION ( 'NONE',  ( -3.491481338843133355E-15, 1.224646799147353207E-16, -1.000000000000000000 ) ) ;
#28 = DIRECTION ( 'NONE',  ( -3.491481338843133355E-15, 1.224646799147353207E-16, -1.000000000000000000 ) ) ;
#29 = CC_DESIGN_PERSON_AND_ORGANIZATION_ASSIGNMENT ( #188, #90, ( #112 ) ) ;
#30 = PLANE ( 'NONE',  #64 ) ;
#31 = ORIENTED_EDGE ( 'NONE', *, *, #76, .F. ) ;
#32 = APPROVAL_DATE_TIME ( #171, #65 ) ;
#33 = EDGE_LOOP ( 'NONE', ( #206 ) ) ;
#34 = CIRCLE ( 'NONE', #9, 1.499999999999999778 ) ;
#35 = PERSON_AND_ORGANIZATION_ROLE ( 'creator' ) ;
#36 =( LENGTH_UNIT ( ) NAMED_UNIT ( * ) SI_UNIT ( .MILLI., .METRE. ) );
#37 = PRODUCT_RELATED_PRODUCT_CATEGORY ( 'detail', '', ( #152 ) ) ;
#38 = CIRCLE ( 'NONE', #61, 0.3999999999999999667 ) ;
#39 = MECHANICAL_CONTEXT ( 'NONE', #57, 'mechanical' ) ;
#40 = APPLICATION_CONTEXT ( 'configuration controlled 3d designs of mechanical parts and assemblies' ) ;
#41 = CIRCLE ( 'NONE', #170, 1.199999999999999956 ) ;
#42 = FACE_OUTER_BOUND ( 'NONE', #201, .T. ) ;
#43 = DIRECTION ( 'NONE',  ( 1.000000000000000000, 0.000000000000000000, -3.523657060577895721E-15 ) ) ;
#44 = PERSON_AND_ORGANIZATION ( #190, #21 ) ;
#45 = MANIFOLD_SOLID_BREP ( 'Corps-Déplacer/Copier1[1]', #106 ) ;
#46 = DIRECTION ( 'NONE',  ( 1.000000000000000000, 0.000000000000000000, -3.491481338843132961E-15 ) ) ;
#47 = DIRECTION ( 'NONE',  ( -4.275831445896958607E-31, -1.000000000000000000, -1.224646799147353207E-16 ) ) ;
#48 = DIRECTION ( 'NONE',  ( -3.491481338843133355E-15, 1.224646799147353207E-16, -1.000000000000000000 ) ) ;
#49 = PRODUCT_DEFINITION_SHAPE ( 'NONE', 'NONE',  #105 ) ;
#50 = DIRECTION ( 'NONE',  ( -3.491481338843133355E-15, 1.224646799147353207E-16, -1.000000000000000000 ) ) ;
#51 =( GEOMETRIC_REPRESENTATION_CONTEXT ( 3 ) GLOBAL_UNCERTAINTY_ASSIGNED_CONTEXT ( ( #14 ) ) GLOBAL_UNIT_ASSIGNED_CONTEXT ( ( #36, #75, #98 ) ) REPRESENTATION_CONTEXT ( 'NONE', 'WORKASPACE' ) );
#52 = DATE_TIME_ROLE ( 'classification_date' ) ;
#53 = EDGE_LOOP ( 'NONE', ( #134 ) ) ;
#54 = ADVANCED_FACE ( 'NONE', ( #22, #122 ), #116, .T. ) ;
#55 = PERSON_AND_ORGANIZATION ( #190, #21 ) ;
#56 = EDGE_LOOP ( 'NONE', ( #203 ) ) ;
#57 = APPLICATION_CONTEXT ( 'configuration controlled 3d designs of mechanical parts and assemblies' ) ;
#58 = PERSON_AND_ORGANIZATION ( #190, #21 ) ;
#59 = VERTEX_POINT ( 'NONE', #139 ) ;
#60 = CARTESIAN_POINT ( 'NONE',  ( 0.3999999999999999667, 0.000000000000000000, -1.763986575281459181E-15 ) ) ;
#61 = AXIS2_PLACEMENT_3D ( 'NONE', #24, #103, #167 ) ;
#62 = CC_DESIGN_APPROVAL ( #79, ( #112 ) ) ;
#63 = CARTESIAN_POINT ( 'NONE',  ( 2.793185071074503529E-15, 0.000000000000000000, 0.7999999999999990452 ) ) ;
#64 = AXIS2_PLACEMENT_3D ( 'NONE', #81, #27, #168 ) ;
#65 = APPROVAL ( #67, 'UNSPECIFIED' ) ;
#66 = CARTESIAN_POINT ( 'NONE',  ( 2.793185071074506684E-15, 0.000000000000000000, 0.8000000000000000444 ) ) ;
#67 = APPROVAL_STATUS ( 'not_yet_approved' ) ;
#68 = DIRECTION ( 'NONE',  ( 3.491481338843133355E-15, -0.000000000000000000, 1.000000000000000000 ) ) ;
#69 = FACE_OUTER_BOUND ( 'NONE', #56, .T. ) ;
#70 = EDGE_LOOP ( 'NONE', ( #123 ) ) ;
#71 = CALENDAR_DATE ( 2023, 1, 2 ) ;
#72 = ADVANCED_FACE ( 'NONE', ( #199 ), #153, .F. ) ;
#73 = ORIENTED_EDGE ( 'NONE', *, *, #161, .F. ) ;
#74 = VERTEX_POINT ( 'NONE', #210 ) ;
#75 =( NAMED_UNIT ( * ) PLANE_ANGLE_UNIT ( ) SI_UNIT ( $, .RADIAN. ) );
#76 = EDGE_CURVE ( 'NONE', #74, #74, #86, .T. ) ;
#77 = PERSON_AND_ORGANIZATION_ROLE ( 'design_owner' ) ;
#78 = PLANE ( 'NONE',  #91 ) ;
#79 = APPROVAL ( #157, 'UNSPECIFIED' ) ;
#80 = DIRECTION ( 'NONE',  ( 0.000000000000000000, 1.000000000000000000, 0.000000000000000000 ) ) ;
#81 = CARTESIAN_POINT ( 'NONE',  ( 1.326762908760390423E-13, 8.998558695971077224E-33, 38.00000000000000000 ) ) ;
#82 = CALENDAR_DATE ( 2023, 1, 2 ) ;
#83 = DIRECTION ( 'NONE',  ( -4.275831445896958607E-31, -1.000000000000000000, -1.224646799147353207E-16 ) ) ;
#84 = CC_DESIGN_PERSON_AND_ORGANIZATION_ASSIGNMENT ( #148, #205, ( #1 ) ) ;
#85 = DIRECTION ( 'NONE',  ( 1.000000000000000000, 0.000000000000000000, -3.491481338843133750E-15 ) ) ;
#86 = CIRCLE ( 'NONE', #180, 0.3999999999999993006 ) ;
#87 = LOCAL_TIME ( 16, 37, 48.00000000000000000, #156 ) ;
#88 = COORDINATED_UNIVERSAL_TIME_OFFSET ( 1, 0, .AHEAD. ) ;
#89 = ADVANCED_FACE ( 'NONE', ( #133 ), #30, .F. ) ;
#90 = PERSON_AND_ORGANIZATION_ROLE ( 'classification_officer' ) ;
#91 = AXIS2_PLACEMENT_3D ( 'NONE', #16, #127, #110 ) ;
#92 = PERSON_AND_ORGANIZATION ( #190, #21 ) ;
#93 = CC_DESIGN_PERSON_AND_ORGANIZATION_ASSIGNMENT ( #92, #35, ( #105 ) ) ;
#94 = DATE_AND_TIME ( #17, #119 ) ;
#95 = DATE_AND_TIME ( #209, #218 ) ;
#96 = CLOSED_SHELL ( 'NONE', ( #113, #54, #202 ) ) ;
#97 = AXIS2_PLACEMENT_3D ( 'NONE', #7, #183, #47 ) ;
#98 =( NAMED_UNIT ( * ) SI_UNIT ( $, .STERADIAN. ) SOLID_ANGLE_UNIT ( ) );
#99 = DIRECTION ( 'NONE',  ( 0.000000000000000000, 1.000000000000000000, 0.000000000000000000 ) ) ;
#100 = FACE_OUTER_BOUND ( 'NONE', #207, .T. ) ;
#101 = APPROVAL_DATE_TIME ( #214, #79 ) ;
#102 = FACE_OUTER_BOUND ( 'NONE', #53, .T. ) ;
#103 = DIRECTION ( 'NONE',  ( 3.491481338843133355E-15, -0.000000000000000000, 1.000000000000000000 ) ) ;
#104 = CIRCLE ( 'NONE', #107, 1.500000000000000000 ) ;
#105 = PRODUCT_DEFINITION ( 'UNKNOWN', '', #1, #174 ) ;
#106 = CLOSED_SHELL ( 'NONE', ( #15, #223, #89, #185, #72 ) ) ;
#107 = AXIS2_PLACEMENT_3D ( 'NONE', #216, #151, #147 ) ;
#108 = CC_DESIGN_DATE_AND_TIME_ASSIGNMENT ( #217, #52, ( #112 ) ) ;
#109 = COORDINATED_UNIVERSAL_TIME_OFFSET ( 1, 0, .AHEAD. ) ;
#110 = DIRECTION ( 'NONE',  ( 4.275831445896958607E-31, 1.000000000000000000, 1.224646799147353207E-16 ) ) ;
#111 = COORDINATED_UNIVERSAL_TIME_OFFSET ( 1, 0, .AHEAD. ) ;
#112 = SECURITY_CLASSIFICATION ( '', '', #136 ) ;
#113 = ADVANCED_FACE ( 'NONE', ( #102 ), #182, .T. ) ;
#114 = ORIENTED_EDGE ( 'NONE', *, *, #120, .F. ) ;
#115 = APPROVAL_ROLE ( '' ) ;
#116 = CYLINDRICAL_SURFACE ( 'NONE', #26, 0.3999999999999996336 ) ;
#117 = MANIFOLD_SOLID_BREP ( 'Corps-Déplacer/Copier1[2]', #96 ) ;
#118 = ORIENTED_EDGE ( 'NONE', *, *, #120, .T. ) ;
#119 = LOCAL_TIME ( 16, 37, 48.00000000000000000, #109 ) ;
#120 = EDGE_CURVE ( 'NONE', #219, #219, #41, .T. ) ;
#121 = CARTESIAN_POINT ( 'NONE',  ( 1.316288464743861212E-13, -4.616918432785521081E-15, 37.69999999999999574 ) ) ;
#122 = FACE_OUTER_BOUND ( 'NONE', #70, .T. ) ;
#123 = ORIENTED_EDGE ( 'NONE', *, *, #20, .F. ) ;
#124 = AXIS2_PLACEMENT_3D ( 'NONE', #66, #131, #46 ) ;
#125 = EDGE_LOOP ( 'NONE', ( #211 ) ) ;
#126 = ADVANCED_BREP_SHAPE_REPRESENTATION ( '977821', ( #45, #117, #130 ), #51 ) ;
#127 = DIRECTION ( 'NONE',  ( -3.491481338843133355E-15, 1.224646799147353207E-16, -1.000000000000000000 ) ) ;
#128 = AXIS2_PLACEMENT_3D ( 'NONE', #192, #159, #208 ) ;
#129 = FACE_BOUND ( 'NONE', #177, .T. ) ;
#130 = AXIS2_PLACEMENT_3D ( 'NONE', #193, #141, #176 ) ;
#131 = DIRECTION ( 'NONE',  ( 3.491481338843133355E-15, -0.000000000000000000, 1.000000000000000000 ) ) ;
#132 = PERSON_AND_ORGANIZATION_ROLE ( 'creator' ) ;
#133 = FACE_OUTER_BOUND ( 'NONE', #213, .T. ) ;
#134 = ORIENTED_EDGE ( 'NONE', *, *, #20, .T. ) ;
#135 = ORIENTED_EDGE ( 'NONE', *, *, #161, .T. ) ;
#136 = SECURITY_CLASSIFICATION_LEVEL ( 'unclassified' ) ;
#137 = CARTESIAN_POINT ( 'NONE',  ( -1.499999999999983125, 0.000000000000000000, 4.848456495999436733 ) ) ;
#138 = CC_DESIGN_SECURITY_CLASSIFICATION ( #112, ( #1 ) ) ;
#139 = CARTESIAN_POINT ( 'NONE',  ( 0.4000000000000021316, 0.000000000000000000, 0.7999999999999976019 ) ) ;
#140 = VERTEX_POINT ( 'NONE', #60 ) ;
#141 = DIRECTION ( 'NONE',  ( 0.000000000000000000, 0.000000000000000000, 1.000000000000000000 ) ) ;
#142 = AXIS2_PLACEMENT_3D ( 'NONE', #164, #144, #83 ) ;
#143 = CC_DESIGN_DATE_AND_TIME_ASSIGNMENT ( #94, #160, ( #105 ) ) ;
#144 = DIRECTION ( 'NONE',  ( 3.491481338843133355E-15, -1.224646799147353207E-16, 1.000000000000000000 ) ) ;
#145 = CALENDAR_DATE ( 2023, 1, 2 ) ;
#146 = CONICAL_SURFACE ( 'NONE', #128, 1.499999999999999778, 0.7853981633974453924 ) ;
#147 = DIRECTION ( 'NONE',  ( -1.000000000000000000, 0.000000000000000000, 3.469446951953614189E-15 ) ) ;
#148 = PERSON_AND_ORGANIZATION ( #190, #21 ) ;
#149 = FACE_OUTER_BOUND ( 'NONE', #11, .T. ) ;
#150 = COORDINATED_UNIVERSAL_TIME_OFFSET ( 1, 0, .AHEAD. ) ;
#151 = DIRECTION ( 'NONE',  ( 3.491481338843133355E-15, -0.000000000000000000, 1.000000000000000000 ) ) ;
#152 = PRODUCT ( '977821', '977821', '', ( #39 ) ) ;
#153 = PLANE ( 'NONE',  #97 ) ;
#154 = AXIS2_PLACEMENT_3D ( 'NONE', #215, #28, #179 ) ;
#155 = CC_DESIGN_APPROVAL ( #25, ( #105 ) ) ;
#156 = COORDINATED_UNIVERSAL_TIME_OFFSET ( 1, 0, .AHEAD. ) ;
#157 = APPROVAL_STATUS ( 'not_yet_approved' ) ;
#158 = APPROVAL_PERSON_ORGANIZATION ( #44, #65, #13 ) ;
#159 = DIRECTION ( 'NONE',  ( -3.491481338843133355E-15, 1.224646799147353207E-16, -1.000000000000000000 ) ) ;
#160 = DATE_TIME_ROLE ( 'creation_date' ) ;
#161 = EDGE_CURVE ( 'NONE', #222, #222, #104, .T. ) ;
#162 = CC_DESIGN_APPROVAL ( #65, ( #1 ) ) ;
#163 = CC_DESIGN_PERSON_AND_ORGANIZATION_ASSIGNMENT ( #58, #77, ( #152 ) ) ;
#164 = CARTESIAN_POINT ( 'NONE',  ( 2.793185071074506290E-15, -1.156482317317871232E-16, 0.7999999999999998224 ) ) ;
#165 = CARTESIAN_POINT ( 'NONE',  ( 0.000000000000000000, 0.000000000000000000, 0.000000000000000000 ) ) ;
#166 = CYLINDRICAL_SURFACE ( 'NONE', #154, 1.500000000000000000 ) ;
#167 = DIRECTION ( 'NONE',  ( 1.000000000000000000, 0.000000000000000000, -3.491481338843133750E-15 ) ) ;
#168 = DIRECTION ( 'NONE',  ( 4.275831445896958607E-31, 1.000000000000000000, 1.224646799147353207E-16 ) ) ;
#169 = EDGE_LOOP ( 'NONE', ( #73 ) ) ;
#170 = AXIS2_PLACEMENT_3D ( 'NONE', #3, #48, #80 ) ;
#171 = DATE_AND_TIME ( #145, #87 ) ;
#172 = APPROVAL_PERSON_ORGANIZATION ( #18, #25, #189 ) ;
#173 = APPROVAL_STATUS ( 'not_yet_approved' ) ;
#174 = DESIGN_CONTEXT ( 'detailed design', #40, 'design' ) ;
#175 = VERTEX_POINT ( 'NONE', #187 ) ;
#176 = DIRECTION ( 'NONE',  ( 1.000000000000000000, 0.000000000000000000, 0.000000000000000000 ) ) ;
#177 = EDGE_LOOP ( 'NONE', ( #118 ) ) ;
#178 = SHAPE_DEFINITION_REPRESENTATION ( #49, #126 ) ;
#179 = DIRECTION ( 'NONE',  ( 4.275831445896959482E-31, 1.000000000000000000, 1.224646799147353207E-16 ) ) ;
#180 = AXIS2_PLACEMENT_3D ( 'NONE', #4, #181, #5 ) ;
#181 = DIRECTION ( 'NONE',  ( 3.491481338843133355E-15, -0.000000000000000000, 1.000000000000000000 ) ) ;
#182 = PLANE ( 'NONE',  #142 ) ;
#183 = DIRECTION ( 'NONE',  ( 3.491481338843133355E-15, -1.224646799147353207E-16, 1.000000000000000000 ) ) ;
#184 = TOROIDAL_SURFACE ( 'NONE', #124, 8.400000000000000355, 8.000000000000000000 ) ;
#185 = ADVANCED_FACE ( 'NONE', ( #212, #149 ), #184, .F. ) ;
#186 = ORIENTED_EDGE ( 'NONE', *, *, #2, .F. ) ;
#187 = CARTESIAN_POINT ( 'NONE',  ( 1.316288464743861212E-13, 1.499999999999995337, 37.69999999999999574 ) ) ;
#188 = PERSON_AND_ORGANIZATION ( #190, #21 ) ;
#189 = APPROVAL_ROLE ( '' ) ;
#190 = PERSON ( 'UNSPECIFIED', 'UNSPECIFIED', 'UNSPECIFIED', ('UNSPECIFIED'), ('UNSPECIFIED'), ('UNSPECIFIED') ) ;
#191 = APPLICATION_PROTOCOL_DEFINITION ( 'international standard', 'config_control_design', 1994, #40 ) ;
#192 = CARTESIAN_POINT ( 'NONE',  ( 1.316288464743861212E-13, -4.616918432785521081E-15, 37.69999999999999574 ) ) ;
#193 = CARTESIAN_POINT ( 'NONE',  ( 0.000000000000000000, 0.000000000000000000, 0.000000000000000000 ) ) ;
#194 = APPLICATION_PROTOCOL_DEFINITION ( 'international standard', 'config_control_design', 1994, #57 ) ;
#195 = CIRCLE ( 'NONE', #200, 0.3999999999999993006 ) ;
#196 = CC_DESIGN_PERSON_AND_ORGANIZATION_ASSIGNMENT ( #23, #132, ( #1 ) ) ;
#197 = ORIENTED_EDGE ( 'NONE', *, *, #76, .T. ) ;
#198 = DIRECTION ( 'NONE',  ( 3.491481338843133355E-15, -0.000000000000000000, 1.000000000000000000 ) ) ;
#199 = FACE_OUTER_BOUND ( 'NONE', #12, .T. ) ;
#200 = AXIS2_PLACEMENT_3D ( 'NONE', #63, #68, #43 ) ;
#201 = EDGE_LOOP ( 'NONE', ( #186 ) ) ;
#202 = ADVANCED_FACE ( 'NONE', ( #69 ), #78, .T. ) ;
#203 = ORIENTED_EDGE ( 'NONE', *, *, #6, .F. ) ;
#204 = APPROVAL_PERSON_ORGANIZATION ( #55, #79, #115 ) ;
#205 = PERSON_AND_ORGANIZATION_ROLE ( 'design_supplier' ) ;
#206 = ORIENTED_EDGE ( 'NONE', *, *, #2, .T. ) ;
#207 = EDGE_LOOP ( 'NONE', ( #135 ) ) ;
#208 = DIRECTION ( 'NONE',  ( 0.000000000000000000, 1.000000000000000000, 0.000000000000000000 ) ) ;
#209 = CALENDAR_DATE ( 2023, 1, 2 ) ;
#210 = CARTESIAN_POINT ( 'NONE',  ( 0.4000000000000021316, 0.000000000000000000, 0.7999999999999976019 ) ) ;
#211 = ORIENTED_EDGE ( 'NONE', *, *, #6, .T. ) ;
#212 = FACE_OUTER_BOUND ( 'NONE', #169, .T. ) ;
#213 = EDGE_LOOP ( 'NONE', ( #114 ) ) ;
#214 = DATE_AND_TIME ( #71, #10 ) ;
#215 = CARTESIAN_POINT ( 'NONE',  ( 0.000000000000000000, 0.000000000000000000, 0.000000000000000000 ) ) ;
#216 = CARTESIAN_POINT ( 'NONE',  ( 1.692829537797478365E-14, 0.000000000000000000, 4.848456495999431404 ) ) ;
#217 = DATE_AND_TIME ( #82, #221 ) ;
#218 = LOCAL_TIME ( 16, 37, 48.00000000000000000, #111 ) ;
#219 = VERTEX_POINT ( 'NONE', #220 ) ;
#220 = CARTESIAN_POINT ( 'NONE',  ( 1.326762908760390423E-13, 1.199999999999995293, 38.00000000000000000 ) ) ;
#221 = LOCAL_TIME ( 16, 37, 48.00000000000000000, #88 ) ;
#222 = VERTEX_POINT ( 'NONE', #137 ) ;
#223 = ADVANCED_FACE ( 'NONE', ( #129, #42 ), #146, .T. ) ;
ENDSEC;
END-ISO-10303-21;
