ISO-10303-21;
HEADER;
FILE_DESCRIPTION (( 'STEP AP203' ),
    '1' );
FILE_NAME ('977820.step',
    '2023-02-01T15:37:48',
    ( '' ),
    ( '' ),
    'SwSTEP 2.0',
    'SolidWorks 2019',
    '' );
FILE_SCHEMA (( 'CONFIG_CONTROL_DESIGN' ));
ENDSEC;

DATA;
#1 =( NAMED_UNIT ( * ) SI_UNIT ( $, .STERADIAN. ) SOLID_ANGLE_UNIT ( ) );
#2 = APPROVAL_DATE_TIME ( #90, #37 ) ;
#3 = AXIS2_PLACEMENT_3D ( 'NONE', #109, #60, #108 ) ;
#4 = CARTESIAN_POINT ( 'NONE',  ( 2.444036937190189799E-15, 0.000000000000000000, 0.6999999999999990674 ) ) ;
#5 = FACE_OUTER_BOUND ( 'NONE', #13, .T. ) ;
#6 = FACE_OUTER_BOUND ( 'NONE', #117, .T. ) ;
#7 = PRODUCT ( '977820', '977820', '', ( #137 ) ) ;
#8 = PERSON ( 'UNSPECIFIED', 'UNSPECIFIED', 'UNSPECIFIED', ('UNSPECIFIED'), ('UNSPECIFIED'), ('UNSPECIFIED') ) ;
#9 = FACE_OUTER_BOUND ( 'NONE', #84, .T. ) ;
#10 = AXIS2_PLACEMENT_3D ( 'NONE', #82, #149, #94 ) ;
#11 = AXIS2_PLACEMENT_3D ( 'NONE', #113, #179, #167 ) ;
#12 = EDGE_CURVE ( 'NONE', #185, #185, #30, .T. ) ;
#13 = EDGE_LOOP ( 'NONE', ( #68 ) ) ;
#14 = DIRECTION ( 'NONE',  ( 1.000000000000000000, 0.000000000000000000, 0.000000000000000000 ) ) ;
#15 = CC_DESIGN_SECURITY_CLASSIFICATION ( #56, ( #102 ) ) ;
#16 = VERTEX_POINT ( 'NONE', #160 ) ;
#17 = PERSON_AND_ORGANIZATION ( #8, #190 ) ;
#18 = CALENDAR_DATE ( 2023, 1, 2 ) ;
#19 = CALENDAR_DATE ( 2023, 1, 2 ) ;
#20 = CARTESIAN_POINT ( 'NONE',  ( 2.444036937190192560E-15, -1.011922027653137143E-16, 0.6999999999999997335 ) ) ;
#21 = DATE_AND_TIME ( #164, #154 ) ;
#22 = APPROVAL_PERSON_ORGANIZATION ( #54, #107, #208 ) ;
#23 = CARTESIAN_POINT ( 'NONE',  ( 2.444036937190192560E-15, -1.011922027653137143E-16, 0.6999999999999997335 ) ) ;
#24 = EDGE_CURVE ( 'NONE', #16, #16, #70, .T. ) ;
#25 = DIRECTION ( 'NONE',  ( 4.275831445896959482E-31, 1.000000000000000000, 1.224646799147353207E-16 ) ) ;
#26 = FACE_OUTER_BOUND ( 'NONE', #204, .T. ) ;
#27 = LOCAL_TIME ( 16, 37, 48.00000000000000000, #177 ) ;
#28 = DIRECTION ( 'NONE',  ( -1.000000000000000000, 0.000000000000000000, 3.469446951953614189E-15 ) ) ;
#29 = CARTESIAN_POINT ( 'NONE',  ( 1.326762908760390423E-13, 1.199999999999995293, 38.00000000000000000 ) ) ;
#30 = CIRCLE ( 'NONE', #10, 1.199999999999999956 ) ;
#31 = ORIENTED_EDGE ( 'NONE', *, *, #47, .F. ) ;
#32 = VERTEX_POINT ( 'NONE', #209 ) ;
#33 = AXIS2_PLACEMENT_3D ( 'NONE', #20, #95, #43 ) ;
#34 = CALENDAR_DATE ( 2023, 1, 2 ) ;
#35 = FACE_OUTER_BOUND ( 'NONE', #163, .T. ) ;
#36 = COORDINATED_UNIVERSAL_TIME_OFFSET ( 1, 0, .AHEAD. ) ;
#37 = APPROVAL ( #106, 'UNSPECIFIED' ) ;
#38 = PERSON_AND_ORGANIZATION_ROLE ( 'classification_officer' ) ;
#39 = TOROIDAL_SURFACE ( 'NONE', #99, 8.349999999999999645, 8.000000000000000000 ) ;
#40 = CC_DESIGN_APPROVAL ( #107, ( #96 ) ) ;
#41 = ORIENTED_EDGE ( 'NONE', *, *, #12, .F. ) ;
#42 = DATE_AND_TIME ( #19, #27 ) ;
#43 = DIRECTION ( 'NONE',  ( -4.275831445896958607E-31, -1.000000000000000000, -1.224646799147353207E-16 ) ) ;
#44 = ORIENTED_EDGE ( 'NONE', *, *, #24, .T. ) ;
#45 = EDGE_CURVE ( 'NONE', #32, #32, #91, .T. ) ;
#46 = FACE_OUTER_BOUND ( 'NONE', #191, .T. ) ;
#47 = EDGE_CURVE ( 'NONE', #71, #71, #212, .T. ) ;
#48 = PERSON_AND_ORGANIZATION ( #8, #190 ) ;
#49 = DIRECTION ( 'NONE',  ( 1.000000000000000000, 0.000000000000000000, -3.407492542097303087E-15 ) ) ;
#50 = DIRECTION ( 'NONE',  ( 1.000000000000000000, 0.000000000000000000, -3.491481338843133750E-15 ) ) ;
#51 = APPROVAL ( #211, 'UNSPECIFIED' ) ;
#52 = CARTESIAN_POINT ( 'NONE',  ( -1.499999999999983125, 0.000000000000000000, 4.832493194186778140 ) ) ;
#53 = CC_DESIGN_PERSON_AND_ORGANIZATION_ASSIGNMENT ( #75, #142, ( #102 ) ) ;
#54 = PERSON_AND_ORGANIZATION ( #8, #190 ) ;
#55 = AXIS2_PLACEMENT_3D ( 'NONE', #162, #144, #49 ) ;
#56 = SECURITY_CLASSIFICATION ( '', '', #124 ) ;
#57 = ADVANCED_FACE ( 'NONE', ( #5 ), #130, .T. ) ;
#58 = PERSON_AND_ORGANIZATION_ROLE ( 'design_supplier' ) ;
#59 = ADVANCED_FACE ( 'NONE', ( #46 ), #215, .F. ) ;
#60 = DIRECTION ( 'NONE',  ( -3.491481338843133355E-15, 1.224646799147353207E-16, -1.000000000000000000 ) ) ;
#61 = DIRECTION ( 'NONE',  ( -3.491481338843133355E-15, 1.224646799147353207E-16, -1.000000000000000000 ) ) ;
#62 = APPROVAL_ROLE ( '' ) ;
#63 = FACE_OUTER_BOUND ( 'NONE', #195, .T. ) ;
#64 = DIRECTION ( 'NONE',  ( 3.491481338843133355E-15, -0.000000000000000000, 1.000000000000000000 ) ) ;
#65 = CC_DESIGN_DATE_AND_TIME_ASSIGNMENT ( #42, #199, ( #56 ) ) ;
#66 = APPLICATION_CONTEXT ( 'configuration controlled 3d designs of mechanical parts and assemblies' ) ;
#67 = ADVANCED_BREP_SHAPE_REPRESENTATION ( '977820', ( #188, #114, #85 ), #100 ) ;
#68 = ORIENTED_EDGE ( 'NONE', *, *, #207, .F. ) ;
#69 = DIRECTION ( 'NONE',  ( -3.491481338843133355E-15, 1.224646799147353207E-16, -1.000000000000000000 ) ) ;
#70 = CIRCLE ( 'NONE', #189, 0.3499999999999996447 ) ;
#71 = VERTEX_POINT ( 'NONE', #206 ) ;
#72 = VERTEX_POINT ( 'NONE', #52 ) ;
#73 = PERSON_AND_ORGANIZATION ( #8, #190 ) ;
#74 = CLOSED_SHELL ( 'NONE', ( #143, #139, #57 ) ) ;
#75 = PERSON_AND_ORGANIZATION ( #8, #190 ) ;
#76 = EDGE_LOOP ( 'NONE', ( #123 ) ) ;
#77 = DIRECTION ( 'NONE',  ( 4.275831445896958607E-31, 1.000000000000000000, 1.224646799147353207E-16 ) ) ;
#78 = FACE_OUTER_BOUND ( 'NONE', #192, .T. ) ;
#79 = SHAPE_DEFINITION_REPRESENTATION ( #183, #67 ) ;
#80 = AXIS2_PLACEMENT_3D ( 'NONE', #128, #197, #25 ) ;
#81 = CONICAL_SURFACE ( 'NONE', #111, 1.499999999999999778, 0.7853981633974453924 ) ;
#82 = CARTESIAN_POINT ( 'NONE',  ( 1.326762908760390423E-13, -4.653657836759941941E-15, 38.00000000000000000 ) ) ;
#83 = CC_DESIGN_APPROVAL ( #51, ( #56 ) ) ;
#84 = EDGE_LOOP ( 'NONE', ( #151 ) ) ;
#85 = AXIS2_PLACEMENT_3D ( 'NONE', #120, #173, #14 ) ;
#86 = DIRECTION ( 'NONE',  ( 1.000000000000000000, 0.000000000000000000, -3.491481338843132961E-15 ) ) ;
#87 = CALENDAR_DATE ( 2023, 1, 2 ) ;
#88 = COORDINATED_UNIVERSAL_TIME_OFFSET ( 1, 0, .AHEAD. ) ;
#89 = FACE_BOUND ( 'NONE', #213, .T. ) ;
#90 = DATE_AND_TIME ( #18, #200 ) ;
#91 = CIRCLE ( 'NONE', #219, 1.499999999999999778 ) ;
#92 = CIRCLE ( 'NONE', #168, 1.500000000000000000 ) ;
#93 = CC_DESIGN_DATE_AND_TIME_ASSIGNMENT ( #105, #152, ( #96 ) ) ;
#94 = DIRECTION ( 'NONE',  ( 0.000000000000000000, 1.000000000000000000, 0.000000000000000000 ) ) ;
#95 = DIRECTION ( 'NONE',  ( 3.491481338843133355E-15, -1.224646799147353207E-16, 1.000000000000000000 ) ) ;
#96 = PRODUCT_DEFINITION ( 'UNKNOWN', '', #102, #166 ) ;
#97 = DIRECTION ( 'NONE',  ( -3.491481338843133355E-15, 1.224646799147353207E-16, -1.000000000000000000 ) ) ;
#98 = DIRECTION ( 'NONE',  ( -4.275831445896958607E-31, -1.000000000000000000, -1.224646799147353207E-16 ) ) ;
#99 = AXIS2_PLACEMENT_3D ( 'NONE', #223, #153, #86 ) ;
#100 =( GEOMETRIC_REPRESENTATION_CONTEXT ( 3 ) GLOBAL_UNCERTAINTY_ASSIGNED_CONTEXT ( ( #155 ) ) GLOBAL_UNIT_ASSIGNED_CONTEXT ( ( #140, #157, #1 ) ) REPRESENTATION_CONTEXT ( 'NONE', 'WORKASPACE' ) );
#101 = CLOSED_SHELL ( 'NONE', ( #133, #184, #129, #170, #59 ) ) ;
#102 = PRODUCT_DEFINITION_FORMATION_WITH_SPECIFIED_SOURCE ( 'ANY', '', #7, .NOT_KNOWN. ) ;
#103 = ORIENTED_EDGE ( 'NONE', *, *, #207, .T. ) ;
#104 = CARTESIAN_POINT ( 'NONE',  ( 0.3500000000000000333, 0.000000000000000000, -1.589412508339302710E-15 ) ) ;
#105 = DATE_AND_TIME ( #34, #135 ) ;
#106 = APPROVAL_STATUS ( 'not_yet_approved' ) ;
#107 = APPROVAL ( #161, 'UNSPECIFIED' ) ;
#108 = DIRECTION ( 'NONE',  ( 4.275831445896958607E-31, 1.000000000000000000, 1.224646799147353207E-16 ) ) ;
#109 = CARTESIAN_POINT ( 'NONE',  ( 1.326762908760390423E-13, 8.998558695971077224E-33, 38.00000000000000000 ) ) ;
#110 = CC_DESIGN_PERSON_AND_ORGANIZATION_ASSIGNMENT ( #210, #58, ( #102 ) ) ;
#111 = AXIS2_PLACEMENT_3D ( 'NONE', #119, #69, #136 ) ;
#112 = FACE_OUTER_BOUND ( 'NONE', #76, .T. ) ;
#113 = CARTESIAN_POINT ( 'NONE',  ( 0.000000000000000000, 0.000000000000000000, 0.000000000000000000 ) ) ;
#114 = MANIFOLD_SOLID_BREP ( 'Corps-Déplacer/Copier1[2]', #74 ) ;
#115 = AXIS2_PLACEMENT_3D ( 'NONE', #180, #97, #77 ) ;
#116 = CC_DESIGN_APPROVAL ( #37, ( #102 ) ) ;
#117 = EDGE_LOOP ( 'NONE', ( #171 ) ) ;
#118 = EDGE_LOOP ( 'NONE', ( #103 ) ) ;
#119 = CARTESIAN_POINT ( 'NONE',  ( 1.316288464743861212E-13, -4.616918432785521081E-15, 37.69999999999999574 ) ) ;
#120 = CARTESIAN_POINT ( 'NONE',  ( 0.000000000000000000, 0.000000000000000000, 0.000000000000000000 ) ) ;
#121 = PERSON_AND_ORGANIZATION_ROLE ( 'design_owner' ) ;
#122 = APPROVAL_DATE_TIME ( #222, #107 ) ;
#123 = ORIENTED_EDGE ( 'NONE', *, *, #45, .T. ) ;
#124 = SECURITY_CLASSIFICATION_LEVEL ( 'unclassified' ) ;
#125 = CC_DESIGN_PERSON_AND_ORGANIZATION_ASSIGNMENT ( #156, #121, ( #7 ) ) ;
#126 = ORIENTED_EDGE ( 'NONE', *, *, #24, .F. ) ;
#127 = COORDINATED_UNIVERSAL_TIME_OFFSET ( 1, 0, .AHEAD. ) ;
#128 = CARTESIAN_POINT ( 'NONE',  ( 0.000000000000000000, 0.000000000000000000, 0.000000000000000000 ) ) ;
#129 = ADVANCED_FACE ( 'NONE', ( #63 ), #198, .F. ) ;
#130 = PLANE ( 'NONE',  #115 ) ;
#131 = AXIS2_PLACEMENT_3D ( 'NONE', #186, #64, #50 ) ;
#132 = DIRECTION ( 'NONE',  ( 3.491481338843133355E-15, -1.224646799147353207E-16, 1.000000000000000000 ) ) ;
#133 = ADVANCED_FACE ( 'NONE', ( #112, #6 ), #181, .T. ) ;
#134 = ORIENTED_EDGE ( 'NONE', *, *, #12, .T. ) ;
#135 = LOCAL_TIME ( 16, 37, 48.00000000000000000, #36 ) ;
#136 = DIRECTION ( 'NONE',  ( 0.000000000000000000, 1.000000000000000000, 0.000000000000000000 ) ) ;
#137 = MECHANICAL_CONTEXT ( 'NONE', #158, 'mechanical' ) ;
#138 = CC_DESIGN_PERSON_AND_ORGANIZATION_ASSIGNMENT ( #73, #193, ( #96 ) ) ;
#139 = ADVANCED_FACE ( 'NONE', ( #182, #26 ), #218, .T. ) ;
#140 =( LENGTH_UNIT ( ) NAMED_UNIT ( * ) SI_UNIT ( .MILLI., .METRE. ) );
#141 = APPLICATION_PROTOCOL_DEFINITION ( 'international standard', 'config_control_design', 1994, #158 ) ;
#142 = PERSON_AND_ORGANIZATION_ROLE ( 'creator' ) ;
#143 = ADVANCED_FACE ( 'NONE', ( #9 ), #196, .T. ) ;
#144 = DIRECTION ( 'NONE',  ( 3.491481338843133355E-15, -0.000000000000000000, 1.000000000000000000 ) ) ;
#145 = APPROVAL_DATE_TIME ( #21, #51 ) ;
#146 = ORIENTED_EDGE ( 'NONE', *, *, #45, .F. ) ;
#147 = DIRECTION ( 'NONE',  ( 0.000000000000000000, 1.000000000000000000, 0.000000000000000000 ) ) ;
#148 = AXIS2_PLACEMENT_3D ( 'NONE', #23, #132, #98 ) ;
#149 = DIRECTION ( 'NONE',  ( -3.491481338843133355E-15, 1.224646799147353207E-16, -1.000000000000000000 ) ) ;
#150 = DIRECTION ( 'NONE',  ( 3.491481338843133355E-15, -0.000000000000000000, 1.000000000000000000 ) ) ;
#151 = ORIENTED_EDGE ( 'NONE', *, *, #47, .T. ) ;
#152 = DATE_TIME_ROLE ( 'creation_date' ) ;
#153 = DIRECTION ( 'NONE',  ( 3.491481338843133355E-15, -0.000000000000000000, 1.000000000000000000 ) ) ;
#154 = LOCAL_TIME ( 16, 37, 48.00000000000000000, #127 ) ;
#155 = UNCERTAINTY_MEASURE_WITH_UNIT (LENGTH_MEASURE( 1.000000000000000082E-05 ), #140, 'distance_accuracy_value', 'NONE');
#156 = PERSON_AND_ORGANIZATION ( #8, #190 ) ;
#157 =( NAMED_UNIT ( * ) PLANE_ANGLE_UNIT ( ) SI_UNIT ( $, .RADIAN. ) );
#158 = APPLICATION_CONTEXT ( 'configuration controlled 3d designs of mechanical parts and assemblies' ) ;
#159 = FACE_OUTER_BOUND ( 'NONE', #178, .T. ) ;
#160 = CARTESIAN_POINT ( 'NONE',  ( 0.3500000000000020317, 0.000000000000000000, 0.6999999999999978462 ) ) ;
#161 = APPROVAL_STATUS ( 'not_yet_approved' ) ;
#162 = CARTESIAN_POINT ( 'NONE',  ( 2.444036937190189799E-15, 0.000000000000000000, 0.6999999999999990674 ) ) ;
#163 = EDGE_LOOP ( 'NONE', ( #44 ) ) ;
#164 = CALENDAR_DATE ( 2023, 1, 2 ) ;
#165 = DIRECTION ( 'NONE',  ( 3.491481338843133355E-15, -0.000000000000000000, 1.000000000000000000 ) ) ;
#166 = DESIGN_CONTEXT ( 'detailed design', #66, 'design' ) ;
#167 = DIRECTION ( 'NONE',  ( 1.000000000000000000, 0.000000000000000000, -3.491481338843133355E-15 ) ) ;
#168 = AXIS2_PLACEMENT_3D ( 'NONE', #202, #150, #28 ) ;
#169 = APPROVAL_PERSON_ORGANIZATION ( #17, #37, #175 ) ;
#170 = ADVANCED_FACE ( 'NONE', ( #78, #35 ), #39, .F. ) ;
#171 = ORIENTED_EDGE ( 'NONE', *, *, #187, .T. ) ;
#172 = PRODUCT_RELATED_PRODUCT_CATEGORY ( 'detail', '', ( #7 ) ) ;
#173 = DIRECTION ( 'NONE',  ( 0.000000000000000000, 0.000000000000000000, 1.000000000000000000 ) ) ;
#174 = APPLICATION_PROTOCOL_DEFINITION ( 'international standard', 'config_control_design', 1994, #66 ) ;
#175 = APPROVAL_ROLE ( '' ) ;
#176 = ORIENTED_EDGE ( 'NONE', *, *, #187, .F. ) ;
#177 = COORDINATED_UNIVERSAL_TIME_OFFSET ( 1, 0, .AHEAD. ) ;
#178 = EDGE_LOOP ( 'NONE', ( #146 ) ) ;
#179 = DIRECTION ( 'NONE',  ( 3.491481338843133355E-15, -0.000000000000000000, 1.000000000000000000 ) ) ;
#180 = CARTESIAN_POINT ( 'NONE',  ( -3.206873584422719393E-31, 1.124819836996393206E-32, -9.184850993605149670E-17 ) ) ;
#181 = CYLINDRICAL_SURFACE ( 'NONE', #80, 1.500000000000000000 ) ;
#182 = FACE_OUTER_BOUND ( 'NONE', #118, .T. ) ;
#183 = PRODUCT_DEFINITION_SHAPE ( 'NONE', 'NONE',  #96 ) ;
#184 = ADVANCED_FACE ( 'NONE', ( #89, #159 ), #81, .T. ) ;
#185 = VERTEX_POINT ( 'NONE', #29 ) ;
#186 = CARTESIAN_POINT ( 'NONE',  ( -1.282749433769087757E-30, 0.000000000000000000, -3.673940397442059868E-16 ) ) ;
#187 = EDGE_CURVE ( 'NONE', #72, #72, #92, .T. ) ;
#188 = MANIFOLD_SOLID_BREP ( 'Corps-Déplacer/Copier1[1]', #101 ) ;
#189 = AXIS2_PLACEMENT_3D ( 'NONE', #4, #165, #216 ) ;
#190 = ORGANIZATION ( 'UNSPECIFIED', 'UNSPECIFIED', '' ) ;
#191 = EDGE_LOOP ( 'NONE', ( #126 ) ) ;
#192 = EDGE_LOOP ( 'NONE', ( #176 ) ) ;
#193 = PERSON_AND_ORGANIZATION_ROLE ( 'creator' ) ;
#194 = PERSON_AND_ORGANIZATION ( #8, #190 ) ;
#195 = EDGE_LOOP ( 'NONE', ( #41 ) ) ;
#196 = PLANE ( 'NONE',  #33 ) ;
#197 = DIRECTION ( 'NONE',  ( -3.491481338843133355E-15, 1.224646799147353207E-16, -1.000000000000000000 ) ) ;
#198 = PLANE ( 'NONE',  #3 ) ;
#199 = DATE_TIME_ROLE ( 'classification_date' ) ;
#200 = LOCAL_TIME ( 16, 37, 48.00000000000000000, #88 ) ;
#201 = CARTESIAN_POINT ( 'NONE',  ( 1.316288464743861212E-13, -4.616918432785521081E-15, 37.69999999999999574 ) ) ;
#202 = CARTESIAN_POINT ( 'NONE',  ( 1.687255980758956275E-14, 0.000000000000000000, 4.832493194186772811 ) ) ;
#203 = CIRCLE ( 'NONE', #131, 0.3500000000000000333 ) ;
#204 = EDGE_LOOP ( 'NONE', ( #31 ) ) ;
#205 = VERTEX_POINT ( 'NONE', #104 ) ;
#206 = CARTESIAN_POINT ( 'NONE',  ( 0.3500000000000020317, 0.000000000000000000, 0.6999999999999978462 ) ) ;
#207 = EDGE_CURVE ( 'NONE', #205, #205, #203, .T. ) ;
#208 = APPROVAL_ROLE ( '' ) ;
#209 = CARTESIAN_POINT ( 'NONE',  ( 1.316288464743861212E-13, 1.499999999999995337, 37.69999999999999574 ) ) ;
#210 = PERSON_AND_ORGANIZATION ( #8, #190 ) ;
#211 = APPROVAL_STATUS ( 'not_yet_approved' ) ;
#212 = CIRCLE ( 'NONE', #55, 0.3499999999999996447 ) ;
#213 = EDGE_LOOP ( 'NONE', ( #134 ) ) ;
#214 = APPROVAL_PERSON_ORGANIZATION ( #48, #51, #62 ) ;
#215 = PLANE ( 'NONE',  #148 ) ;
#216 = DIRECTION ( 'NONE',  ( 1.000000000000000000, 0.000000000000000000, -3.407492542097303087E-15 ) ) ;
#217 = CC_DESIGN_PERSON_AND_ORGANIZATION_ASSIGNMENT ( #194, #38, ( #56 ) ) ;
#218 = CYLINDRICAL_SURFACE ( 'NONE', #11, 0.3499999999999998113 ) ;
#219 = AXIS2_PLACEMENT_3D ( 'NONE', #201, #61, #147 ) ;
#220 = LOCAL_TIME ( 16, 37, 48.00000000000000000, #221 ) ;
#221 = COORDINATED_UNIVERSAL_TIME_OFFSET ( 1, 0, .AHEAD. ) ;
#222 = DATE_AND_TIME ( #87, #220 ) ;
#223 = CARTESIAN_POINT ( 'NONE',  ( 2.444036937190193349E-15, 0.000000000000000000, 0.6999999999999999556 ) ) ;
ENDSEC;
END-ISO-10303-21;
