ISO-10303-21;
HEADER;
FILE_DESCRIPTION (( 'STEP AP203' ),
    '1' );
FILE_NAME ('977819.step',
    '2021-11-15T08:55:14',
    ( '' ),
    ( '' ),
    'SwSTEP 2.0',
    'SolidWorks 2019',
    '' );
FILE_SCHEMA (( 'CONFIG_CONTROL_DESIGN' ));
ENDSEC;

DATA;
#1 = DATE_AND_TIME ( #213, #78 ) ;
#2 = COORDINATED_UNIVERSAL_TIME_OFFSET ( 1, 0, .AHEAD. ) ;
#3 = CALENDAR_DATE ( 2021, 15, 11 ) ;
#4 = PERSON_AND_ORGANIZATION_ROLE ( 'design_owner' ) ;
#5 = CARTESIAN_POINT ( 'NONE',  ( 2.094888803305878830E-15, -8.673617379884030542E-17, 0.5999999999999997558 ) ) ;
#6 = CC_DESIGN_PERSON_AND_ORGANIZATION_ASSIGNMENT ( #137, #194, ( #212 ) ) ;
#7 = ORIENTED_EDGE ( 'NONE', *, *, #34, .F. ) ;
#8 = AXIS2_PLACEMENT_3D ( 'NONE', #191, #15, #99 ) ;
#9 = ORIENTED_EDGE ( 'NONE', *, *, #126, .F. ) ;
#10 = CARTESIAN_POINT ( 'NONE',  ( -1.282749433769087757E-30, 0.0000000000000000000, -3.673940397442059868E-16 ) ) ;
#11 = ADVANCED_FACE ( 'NONE', ( #165 ), #115, .F. ) ;
#12 = PLANE ( 'NONE',  #56 ) ;
#13 = CYLINDRICAL_SURFACE ( 'NONE', #8, 0.2999999999999999334 ) ;
#14 = ADVANCED_BREP_SHAPE_REPRESENTATION ( '977819', ( #216, #143, #61 ), #184 ) ;
#15 = DIRECTION ( 'NONE',  ( 3.491481338843133355E-15, -0.0000000000000000000, 1.000000000000000000 ) ) ;
#16 = APPLICATION_CONTEXT ( 'configuration controlled 3d designs of mechanical parts and assemblies' ) ;
#17 = FACE_OUTER_BOUND ( 'NONE', #27, .T. ) ;
#18 = EDGE_CURVE ( 'NONE', #174, #174, #150, .T. ) ;
#19 = PERSON_AND_ORGANIZATION ( #146, #25 ) ;
#20 = COORDINATED_UNIVERSAL_TIME_OFFSET ( 1, 0, .AHEAD. ) ;
#21 = APPROVAL ( #181, 'UNSPECIFIED' ) ;
#22 = LOCAL_TIME ( 9, 55, 14.00000000000000000, #111 ) ;
#23 = CARTESIAN_POINT ( 'NONE',  ( 0.0000000000000000000, 0.0000000000000000000, 0.0000000000000000000 ) ) ;
#24 = DATE_TIME_ROLE ( 'creation_date' ) ;
#25 = ORGANIZATION ( 'UNSPECIFIED', 'UNSPECIFIED', '' ) ;
#26 = ADVANCED_FACE ( 'NONE', ( #207, #17 ), #157, .T. ) ;
#27 = EDGE_LOOP ( 'NONE', ( #186 ) ) ;
#28 = EDGE_LOOP ( 'NONE', ( #74 ) ) ;
#29 = FACE_OUTER_BOUND ( 'NONE', #38, .T. ) ;
#30 = AXIS2_PLACEMENT_3D ( 'NONE', #125, #189, #170 ) ;
#31 = DIRECTION ( 'NONE',  ( -3.491481338843133355E-15, 1.224646799147353207E-16, -1.000000000000000000 ) ) ;
#32 = DIRECTION ( 'NONE',  ( 4.275831445896959482E-31, 1.000000000000000000, 1.224646799147353207E-16 ) ) ;
#33 = DIRECTION ( 'NONE',  ( -3.491481338843133355E-15, 1.224646799147353207E-16, -1.000000000000000000 ) ) ;
#34 = EDGE_CURVE ( 'NONE', #58, #58, #87, .T. ) ;
#35 = PERSON_AND_ORGANIZATION_ROLE ( 'creator' ) ;
#36 =( NAMED_UNIT ( * ) SI_UNIT ( $, .STERADIAN. ) SOLID_ANGLE_UNIT ( ) );
#37 = APPROVAL ( #110, 'UNSPECIFIED' ) ;
#38 = EDGE_LOOP ( 'NONE', ( #39 ) ) ;
#39 = ORIENTED_EDGE ( 'NONE', *, *, #18, .F. ) ;
#40 = AXIS2_PLACEMENT_3D ( 'NONE', #192, #48, #220 ) ;
#41 = EDGE_LOOP ( 'NONE', ( #7 ) ) ;
#42 = CARTESIAN_POINT ( 'NONE',  ( 0.0000000000000000000, 0.0000000000000000000, 0.0000000000000000000 ) ) ;
#43 = CARTESIAN_POINT ( 'NONE',  ( 2.094888803305876463E-15, 0.0000000000000000000, 0.5999999999999989786 ) ) ;
#44 = CIRCLE ( 'NONE', #180, 0.2999999999999999334 ) ;
#45 = FACE_OUTER_BOUND ( 'NONE', #148, .T. ) ;
#46 = UNCERTAINTY_MEASURE_WITH_UNIT (LENGTH_MEASURE( 1.000000000000000082E-05 ), #53, 'distance_accuracy_value', 'NONE');
#47 = EDGE_CURVE ( 'NONE', #133, #133, #44, .T. ) ;
#48 = DIRECTION ( 'NONE',  ( -3.491481338843133355E-15, 1.224646799147353207E-16, -1.000000000000000000 ) ) ;
#49 = FACE_OUTER_BOUND ( 'NONE', #113, .T. ) ;
#50 = APPROVAL_PERSON_ORGANIZATION ( #176, #21, #123 ) ;
#51 = APPROVAL_ROLE ( '' ) ;
#52 = CALENDAR_DATE ( 2021, 15, 11 ) ;
#53 =( LENGTH_UNIT ( ) NAMED_UNIT ( * ) SI_UNIT ( .MILLI., .METRE. ) );
#54 = PERSON_AND_ORGANIZATION ( #146, #25 ) ;
#55 = ADVANCED_FACE ( 'NONE', ( #119 ), #63, .T. ) ;
#56 = AXIS2_PLACEMENT_3D ( 'NONE', #120, #31, #98 ) ;
#57 = DIRECTION ( 'NONE',  ( 1.000000000000000000, 0.0000000000000000000, -3.614007241618349165E-15 ) ) ;
#58 = VERTEX_POINT ( 'NONE', #59 ) ;
#59 = CARTESIAN_POINT ( 'NONE',  ( 1.316288464743861212E-13, 1.499999999999995337, 37.69999999999999574 ) ) ;
#60 = CONICAL_SURFACE ( 'NONE', #40, 1.499999999999999778, 0.7853981633974453924 ) ;
#61 = AXIS2_PLACEMENT_3D ( 'NONE', #23, #208, #195 ) ;
#62 = DIRECTION ( 'NONE',  ( 1.000000000000000000, 0.0000000000000000000, -3.491481338843132961E-15 ) ) ;
#63 = PLANE ( 'NONE',  #109 ) ;
#64 = PERSON_AND_ORGANIZATION ( #146, #25 ) ;
#65 = DATE_TIME_ROLE ( 'classification_date' ) ;
#66 = VERTEX_POINT ( 'NONE', #70 ) ;
#67 = PERSON_AND_ORGANIZATION ( #146, #25 ) ;
#68 = CC_DESIGN_PERSON_AND_ORGANIZATION_ASSIGNMENT ( #67, #178, ( #124 ) ) ;
#69 = AXIS2_PLACEMENT_3D ( 'NONE', #132, #203, #173 ) ;
#70 = CARTESIAN_POINT ( 'NONE',  ( 0.2999999999999999334, 0.0000000000000000000, -1.414838441397145648E-15 ) ) ;
#71 = LOCAL_TIME ( 9, 55, 14.00000000000000000, #85 ) ;
#72 = DIRECTION ( 'NONE',  ( 3.491481338843133355E-15, -1.224646799147353207E-16, 1.000000000000000000 ) ) ;
#73 = ADVANCED_FACE ( 'NONE', ( #49, #45 ), #179, .F. ) ;
#74 = ORIENTED_EDGE ( 'NONE', *, *, #222, .F. ) ;
#75 = AXIS2_PLACEMENT_3D ( 'NONE', #96, #82, #155 ) ;
#76 = ORIENTED_EDGE ( 'NONE', *, *, #47, .T. ) ;
#77 = AXIS2_PLACEMENT_3D ( 'NONE', #152, #151, #219 ) ;
#78 = LOCAL_TIME ( 9, 55, 14.00000000000000000, #210 ) ;
#79 = CC_DESIGN_DATE_AND_TIME_ASSIGNMENT ( #138, #65, ( #103 ) ) ;
#80 = CARTESIAN_POINT ( 'NONE',  ( 2.094888803305876463E-15, 0.0000000000000000000, 0.5999999999999989786 ) ) ;
#81 = DIRECTION ( 'NONE',  ( 3.491481338843133355E-15, -0.0000000000000000000, 1.000000000000000000 ) ) ;
#82 = DIRECTION ( 'NONE',  ( 3.491481338843133355E-15, -0.0000000000000000000, 1.000000000000000000 ) ) ;
#83 = AXIS2_PLACEMENT_3D ( 'NONE', #10, #221, #62 ) ;
#84 = DIRECTION ( 'NONE',  ( 1.000000000000000000, 0.0000000000000000000, -3.614007241618349165E-15 ) ) ;
#85 = COORDINATED_UNIVERSAL_TIME_OFFSET ( 1, 0, .AHEAD. ) ;
#86 = PERSON_AND_ORGANIZATION_ROLE ( 'classification_officer' ) ;
#87 = CIRCLE ( 'NONE', #69, 1.499999999999999778 ) ;
#88 = APPROVAL_DATE_TIME ( #158, #135 ) ;
#89 =( NAMED_UNIT ( * ) PLANE_ANGLE_UNIT ( ) SI_UNIT ( $, .RADIAN. ) );
#90 = ADVANCED_FACE ( 'NONE', ( #116 ), #218, .T. ) ;
#91 = CIRCLE ( 'NONE', #75, 1.500000000000000000 ) ;
#92 = DATE_AND_TIME ( #127, #22 ) ;
#93 = ORIENTED_EDGE ( 'NONE', *, *, #166, .F. ) ;
#94 = EDGE_LOOP ( 'NONE', ( #183 ) ) ;
#95 = FACE_OUTER_BOUND ( 'NONE', #145, .T. ) ;
#96 = CARTESIAN_POINT ( 'NONE',  ( 1.680890419154506286E-14, 0.0000000000000000000, 4.814261501141094080 ) ) ;
#97 = FACE_BOUND ( 'NONE', #198, .T. ) ;
#98 = DIRECTION ( 'NONE',  ( 4.275831445896958607E-31, 1.000000000000000000, 1.224646799147353207E-16 ) ) ;
#99 = DIRECTION ( 'NONE',  ( 1.000000000000000000, 0.0000000000000000000, -3.491481338843132961E-15 ) ) ;
#100 = CARTESIAN_POINT ( 'NONE',  ( 0.3000000000000020428, 0.0000000000000000000, 0.5999999999999978684 ) ) ;
#101 = APPROVAL_DATE_TIME ( #1, #21 ) ;
#102 = CIRCLE ( 'NONE', #83, 0.2999999999999999334 ) ;
#103 = SECURITY_CLASSIFICATION ( '', '', #177 ) ;
#104 = CC_DESIGN_APPROVAL ( #135, ( #212 ) ) ;
#105 = MECHANICAL_CONTEXT ( 'NONE', #16, 'mechanical' ) ;
#106 = DATE_AND_TIME ( #161, #171 ) ;
#107 = PRODUCT_DEFINITION_SHAPE ( 'NONE', 'NONE',  #124 ) ;
#108 = APPROVAL_DATE_TIME ( #92, #37 ) ;
#109 = AXIS2_PLACEMENT_3D ( 'NONE', #136, #202, #117 ) ;
#110 = APPROVAL_STATUS ( 'not_yet_approved' ) ;
#111 = COORDINATED_UNIVERSAL_TIME_OFFSET ( 1, 0, .AHEAD. ) ;
#112 = CC_DESIGN_PERSON_AND_ORGANIZATION_ASSIGNMENT ( #64, #4, ( #131 ) ) ;
#113 = EDGE_LOOP ( 'NONE', ( #9 ) ) ;
#114 = CC_DESIGN_SECURITY_CLASSIFICATION ( #103, ( #212 ) ) ;
#115 = PLANE ( 'NONE',  #144 ) ;
#116 = FACE_OUTER_BOUND ( 'NONE', #215, .T. ) ;
#117 = DIRECTION ( 'NONE',  ( -4.275831445896958607E-31, -1.000000000000000000, -1.224646799147353207E-16 ) ) ;
#118 = CC_DESIGN_APPROVAL ( #21, ( #124 ) ) ;
#119 = FACE_OUTER_BOUND ( 'NONE', #168, .T. ) ;
#120 = CARTESIAN_POINT ( 'NONE',  ( 1.326762908760390423E-13, 8.998558695971077224E-33, 38.00000000000000000 ) ) ;
#121 = APPROVAL_STATUS ( 'not_yet_approved' ) ;
#122 = APPLICATION_PROTOCOL_DEFINITION ( 'international standard', 'config_control_design', 1994, #182 ) ;
#123 = APPROVAL_ROLE ( '' ) ;
#124 = PRODUCT_DEFINITION ( 'UNKNOWN', '', #212, #153 ) ;
#125 = CARTESIAN_POINT ( 'NONE',  ( 1.326762908760390423E-13, -4.653657836759941941E-15, 38.00000000000000000 ) ) ;
#126 = EDGE_CURVE ( 'NONE', #193, #193, #91, .T. ) ;
#127 = CALENDAR_DATE ( 2021, 15, 11 ) ;
#128 = ORIENTED_EDGE ( 'NONE', *, *, #47, .F. ) ;
#129 = AXIS2_PLACEMENT_3D ( 'NONE', #206, #187, #190 ) ;
#130 = ORIENTED_EDGE ( 'NONE', *, *, #166, .T. ) ;
#131 = PRODUCT ( '977819', '977819', '', ( #105 ) ) ;
#132 = CARTESIAN_POINT ( 'NONE',  ( 1.316288464743861212E-13, -4.616918432785521081E-15, 37.69999999999999574 ) ) ;
#133 = VERTEX_POINT ( 'NONE', #205 ) ;
#134 = FACE_OUTER_BOUND ( 'NONE', #41, .T. ) ;
#135 = APPROVAL ( #121, 'UNSPECIFIED' ) ;
#136 = CARTESIAN_POINT ( 'NONE',  ( 2.094888803305878830E-15, -8.673617379884030542E-17, 0.5999999999999997558 ) ) ;
#137 = PERSON_AND_ORGANIZATION ( #146, #25 ) ;
#138 = DATE_AND_TIME ( #52, #199 ) ;
#139 = PERSON_AND_ORGANIZATION ( #146, #25 ) ;
#140 = CC_DESIGN_APPROVAL ( #37, ( #103 ) ) ;
#141 = APPLICATION_PROTOCOL_DEFINITION ( 'international standard', 'config_control_design', 1994, #16 ) ;
#142 = DIRECTION ( 'NONE',  ( -4.275831445896958607E-31, -1.000000000000000000, -1.224646799147353207E-16 ) ) ;
#143 = MANIFOLD_SOLID_BREP ( 'Corps-Déplacer/Copier1[2]', #175 ) ;
#144 = AXIS2_PLACEMENT_3D ( 'NONE', #5, #72, #142 ) ;
#145 = EDGE_LOOP ( 'NONE', ( #130 ) ) ;
#146 = PERSON ( 'UNSPECIFIED', 'UNSPECIFIED', 'UNSPECIFIED', ('UNSPECIFIED'), ('UNSPECIFIED'), ('UNSPECIFIED') ) ;
#147 = ADVANCED_FACE ( 'NONE', ( #29 ), #12, .F. ) ;
#148 = EDGE_LOOP ( 'NONE', ( #76 ) ) ;
#149 = EDGE_LOOP ( 'NONE', ( #128 ) ) ;
#150 = CIRCLE ( 'NONE', #30, 1.199999999999999956 ) ;
#151 = DIRECTION ( 'NONE',  ( 3.491481338843133355E-15, -0.0000000000000000000, 1.000000000000000000 ) ) ;
#152 = CARTESIAN_POINT ( 'NONE',  ( 2.094888803305879619E-15, 0.0000000000000000000, 0.5999999999999999778 ) ) ;
#153 = DESIGN_CONTEXT ( 'detailed design', #182, 'design' ) ;
#154 = CARTESIAN_POINT ( 'NONE',  ( 1.326762908760390423E-13, 1.199999999999995293, 38.00000000000000000 ) ) ;
#155 = DIRECTION ( 'NONE',  ( -1.000000000000000000, 0.0000000000000000000, 3.469446951953614189E-15 ) ) ;
#156 = CLOSED_SHELL ( 'NONE', ( #26, #211, #147, #73, #11 ) ) ;
#157 = CYLINDRICAL_SURFACE ( 'NONE', #162, 1.500000000000000000 ) ;
#158 = DATE_AND_TIME ( #3, #71 ) ;
#159 = CARTESIAN_POINT ( 'NONE',  ( -1.499999999999983125, 0.0000000000000000000, 4.814261501141099409 ) ) ;
#160 = ADVANCED_FACE ( 'NONE', ( #95, #169 ), #13, .T. ) ;
#161 = CALENDAR_DATE ( 2021, 15, 11 ) ;
#162 = AXIS2_PLACEMENT_3D ( 'NONE', #42, #33, #32 ) ;
#163 = CC_DESIGN_PERSON_AND_ORGANIZATION_ASSIGNMENT ( #19, #86, ( #103 ) ) ;
#164 = ORIENTED_EDGE ( 'NONE', *, *, #18, .T. ) ;
#165 = FACE_OUTER_BOUND ( 'NONE', #149, .T. ) ;
#166 = EDGE_CURVE ( 'NONE', #66, #66, #102, .T. ) ;
#167 = CIRCLE ( 'NONE', #196, 0.2999999999999999334 ) ;
#168 = EDGE_LOOP ( 'NONE', ( #201 ) ) ;
#169 = FACE_OUTER_BOUND ( 'NONE', #28, .T. ) ;
#170 = DIRECTION ( 'NONE',  ( 0.0000000000000000000, 1.000000000000000000, 0.0000000000000000000 ) ) ;
#171 = LOCAL_TIME ( 9, 55, 14.00000000000000000, #20 ) ;
#172 = DIRECTION ( 'NONE',  ( 3.491481338843133355E-15, -0.0000000000000000000, 1.000000000000000000 ) ) ;
#173 = DIRECTION ( 'NONE',  ( 0.0000000000000000000, 1.000000000000000000, 0.0000000000000000000 ) ) ;
#174 = VERTEX_POINT ( 'NONE', #154 ) ;
#175 = CLOSED_SHELL ( 'NONE', ( #55, #160, #90 ) ) ;
#176 = PERSON_AND_ORGANIZATION ( #146, #25 ) ;
#177 = SECURITY_CLASSIFICATION_LEVEL ( 'unclassified' ) ;
#178 = PERSON_AND_ORGANIZATION_ROLE ( 'creator' ) ;
#179 = TOROIDAL_SURFACE ( 'NONE', #77, 8.300000000000000711, 8.000000000000000000 ) ;
#180 = AXIS2_PLACEMENT_3D ( 'NONE', #43, #172, #84 ) ;
#181 = APPROVAL_STATUS ( 'not_yet_approved' ) ;
#182 = APPLICATION_CONTEXT ( 'configuration controlled 3d designs of mechanical parts and assemblies' ) ;
#183 = ORIENTED_EDGE ( 'NONE', *, *, #34, .T. ) ;
#184 =( GEOMETRIC_REPRESENTATION_CONTEXT ( 3 ) GLOBAL_UNCERTAINTY_ASSIGNED_CONTEXT ( ( #46 ) ) GLOBAL_UNIT_ASSIGNED_CONTEXT ( ( #53, #89, #36 ) ) REPRESENTATION_CONTEXT ( 'NONE', 'WORKASPACE' ) );
#185 = SHAPE_DEFINITION_REPRESENTATION ( #107, #14 ) ;
#186 = ORIENTED_EDGE ( 'NONE', *, *, #126, .T. ) ;
#187 = DIRECTION ( 'NONE',  ( -3.491481338843133355E-15, 1.224646799147353207E-16, -1.000000000000000000 ) ) ;
#188 = PRODUCT_RELATED_PRODUCT_CATEGORY ( 'detail', '', ( #131 ) ) ;
#189 = DIRECTION ( 'NONE',  ( -3.491481338843133355E-15, 1.224646799147353207E-16, -1.000000000000000000 ) ) ;
#190 = DIRECTION ( 'NONE',  ( 4.275831445896958607E-31, 1.000000000000000000, 1.224646799147353207E-16 ) ) ;
#191 = CARTESIAN_POINT ( 'NONE',  ( 0.0000000000000000000, 0.0000000000000000000, 0.0000000000000000000 ) ) ;
#192 = CARTESIAN_POINT ( 'NONE',  ( 1.316288464743861212E-13, -4.616918432785521081E-15, 37.69999999999999574 ) ) ;
#193 = VERTEX_POINT ( 'NONE', #159 ) ;
#194 = PERSON_AND_ORGANIZATION_ROLE ( 'design_supplier' ) ;
#195 = DIRECTION ( 'NONE',  ( 1.000000000000000000, 0.0000000000000000000, 0.0000000000000000000 ) ) ;
#196 = AXIS2_PLACEMENT_3D ( 'NONE', #80, #81, #57 ) ;
#197 = APPROVAL_PERSON_ORGANIZATION ( #54, #37, #214 ) ;
#198 = EDGE_LOOP ( 'NONE', ( #164 ) ) ;
#199 = LOCAL_TIME ( 9, 55, 14.00000000000000000, #2 ) ;
#200 = CC_DESIGN_PERSON_AND_ORGANIZATION_ASSIGNMENT ( #223, #35, ( #212 ) ) ;
#201 = ORIENTED_EDGE ( 'NONE', *, *, #222, .T. ) ;
#202 = DIRECTION ( 'NONE',  ( 3.491481338843133355E-15, -1.224646799147353207E-16, 1.000000000000000000 ) ) ;
#203 = DIRECTION ( 'NONE',  ( -3.491481338843133355E-15, 1.224646799147353207E-16, -1.000000000000000000 ) ) ;
#204 = APPROVAL_PERSON_ORGANIZATION ( #139, #135, #51 ) ;
#205 = CARTESIAN_POINT ( 'NONE',  ( 0.3000000000000020428, 0.0000000000000000000, 0.5999999999999978684 ) ) ;
#206 = CARTESIAN_POINT ( 'NONE',  ( -3.206873584422719393E-31, 1.124819836996393206E-32, -9.184850993605149670E-17 ) ) ;
#207 = FACE_OUTER_BOUND ( 'NONE', #94, .T. ) ;
#208 = DIRECTION ( 'NONE',  ( 0.0000000000000000000, 0.0000000000000000000, 1.000000000000000000 ) ) ;
#209 = VERTEX_POINT ( 'NONE', #100 ) ;
#210 = COORDINATED_UNIVERSAL_TIME_OFFSET ( 1, 0, .AHEAD. ) ;
#211 = ADVANCED_FACE ( 'NONE', ( #97, #134 ), #60, .T. ) ;
#212 = PRODUCT_DEFINITION_FORMATION_WITH_SPECIFIED_SOURCE ( 'ANY', '', #131, .NOT_KNOWN. ) ;
#213 = CALENDAR_DATE ( 2021, 15, 11 ) ;
#214 = APPROVAL_ROLE ( '' ) ;
#215 = EDGE_LOOP ( 'NONE', ( #93 ) ) ;
#216 = MANIFOLD_SOLID_BREP ( 'Corps-Déplacer/Copier1[1]', #156 ) ;
#217 = CC_DESIGN_DATE_AND_TIME_ASSIGNMENT ( #106, #24, ( #124 ) ) ;
#218 = PLANE ( 'NONE',  #129 ) ;
#219 = DIRECTION ( 'NONE',  ( 1.000000000000000000, 0.0000000000000000000, -3.491481338843132961E-15 ) ) ;
#220 = DIRECTION ( 'NONE',  ( 0.0000000000000000000, 1.000000000000000000, 0.0000000000000000000 ) ) ;
#221 = DIRECTION ( 'NONE',  ( 3.491481338843133355E-15, -0.0000000000000000000, 1.000000000000000000 ) ) ;
#222 = EDGE_CURVE ( 'NONE', #209, #209, #167, .T. ) ;
#223 = PERSON_AND_ORGANIZATION ( #146, #25 ) ;
ENDSEC;
END-ISO-10303-21;
