ISO-10303-21;
HEADER;
FILE_DESCRIPTION (( 'STEP AP203' ),
    '1' );
FILE_NAME ('977818.step',
    '2023-02-01T15:37:47',
    ( '' ),
    ( '' ),
    'SwSTEP 2.0',
    'SolidWorks 2019',
    '' );
FILE_SCHEMA (( 'CONFIG_CONTROL_DESIGN' ));
ENDSEC;

DATA;
#1 = FACE_BOUND ( 'NONE', #59, .T. ) ;
#2 = CIRCLE ( 'NONE', #197, 1.500000000000000000 ) ;
#3 = EDGE_LOOP ( 'NONE', ( #145 ) ) ;
#4 = ORIENTED_EDGE ( 'NONE', *, *, #47, .T. ) ;
#5 = EDGE_LOOP ( 'NONE', ( #4 ) ) ;
#6 = PERSON_AND_ORGANIZATION_ROLE ( 'creator' ) ;
#7 = CC_DESIGN_DATE_AND_TIME_ASSIGNMENT ( #67, #178, ( #175 ) ) ;
#8 = COORDINATED_UNIVERSAL_TIME_OFFSET ( 1, 0, .AHEAD. ) ;
#9 = APPROVAL_PERSON_ORGANIZATION ( #33, #217, #16 ) ;
#10 = DATE_AND_TIME ( #66, #28 ) ;
#11 = CC_DESIGN_PERSON_AND_ORGANIZATION_ASSIGNMENT ( #213, #6, ( #77 ) ) ;
#12 = CARTESIAN_POINT ( 'NONE',  ( -1.282749433769087757E-30, 0.000000000000000000, -3.673940397442059868E-16 ) ) ;
#13 = ORGANIZATION ( 'UNSPECIFIED', 'UNSPECIFIED', '' ) ;
#14 = DIRECTION ( 'NONE',  ( 0.000000000000000000, 0.000000000000000000, 1.000000000000000000 ) ) ;
#15 = CARTESIAN_POINT ( 'NONE',  ( 0.000000000000000000, 0.000000000000000000, 0.000000000000000000 ) ) ;
#16 = APPROVAL_ROLE ( '' ) ;
#17 = DIRECTION ( 'NONE',  ( -3.491481338843133355E-15, 1.224646799147353207E-16, -1.000000000000000000 ) ) ;
#18 = EDGE_LOOP ( 'NONE', ( #20 ) ) ;
#19 = APPLICATION_CONTEXT ( 'configuration controlled 3d designs of mechanical parts and assemblies' ) ;
#20 = ORIENTED_EDGE ( 'NONE', *, *, #44, .T. ) ;
#21 = DIRECTION ( 'NONE',  ( 3.491481338843133355E-15, -1.224646799147353207E-16, 1.000000000000000000 ) ) ;
#22 = APPROVAL ( #181, 'UNSPECIFIED' ) ;
#23 = EDGE_LOOP ( 'NONE', ( #207 ) ) ;
#24 = DATE_AND_TIME ( #88, #190 ) ;
#25 = ADVANCED_FACE ( 'NONE', ( #163 ), #60, .F. ) ;
#26 = MANIFOLD_SOLID_BREP ( 'Corps-Déplacer/Copier1[2]', #31 ) ;
#27 = APPROVAL_DATE_TIME ( #149, #211 ) ;
#28 = LOCAL_TIME ( 16, 37, 47.00000000000000000, #147 ) ;
#29 = APPLICATION_PROTOCOL_DEFINITION ( 'international standard', 'config_control_design', 1994, #141 ) ;
#30 =( NAMED_UNIT ( * ) SI_UNIT ( $, .STERADIAN. ) SOLID_ANGLE_UNIT ( ) );
#31 = CLOSED_SHELL ( 'NONE', ( #37, #129, #199 ) ) ;
#32 = AXIS2_PLACEMENT_3D ( 'NONE', #74, #138, #105 ) ;
#33 = PERSON_AND_ORGANIZATION ( #49, #13 ) ;
#34 = PLANE ( 'NONE',  #182 ) ;
#35 = CARTESIAN_POINT ( 'NONE',  ( 1.326762908760390423E-13, 8.998558695971077224E-33, 38.00000000000000000 ) ) ;
#36 = DIRECTION ( 'NONE',  ( 0.000000000000000000, 1.000000000000000000, 0.000000000000000000 ) ) ;
#37 = ADVANCED_FACE ( 'NONE', ( #192 ), #61, .T. ) ;
#38 = CARTESIAN_POINT ( 'NONE',  ( 1.680890419154506286E-14, 0.000000000000000000, 4.814261501141094080 ) ) ;
#39 = AXIS2_PLACEMENT_3D ( 'NONE', #50, #14, #154 ) ;
#40 = EDGE_LOOP ( 'NONE', ( #108 ) ) ;
#41 = CARTESIAN_POINT ( 'NONE',  ( 2.094888803305876463E-15, 0.000000000000000000, 0.5999999999999989786 ) ) ;
#42 = EDGE_CURVE ( 'NONE', #155, #155, #2, .T. ) ;
#43 = APPROVAL_DATE_TIME ( #24, #217 ) ;
#44 = EDGE_CURVE ( 'NONE', #54, #54, #148, .T. ) ;
#45 = CONICAL_SURFACE ( 'NONE', #134, 1.499999999999999778, 0.7853981633974453924 ) ;
#46 = CALENDAR_DATE ( 2023, 1, 2 ) ;
#47 = EDGE_CURVE ( 'NONE', #220, #220, #139, .T. ) ;
#48 = PERSON_AND_ORGANIZATION ( #49, #13 ) ;
#49 = PERSON ( 'UNSPECIFIED', 'UNSPECIFIED', 'UNSPECIFIED', ('UNSPECIFIED'), ('UNSPECIFIED'), ('UNSPECIFIED') ) ;
#50 = CARTESIAN_POINT ( 'NONE',  ( 0.000000000000000000, 0.000000000000000000, 0.000000000000000000 ) ) ;
#51 = DESIGN_CONTEXT ( 'detailed design', #19, 'design' ) ;
#52 = CARTESIAN_POINT ( 'NONE',  ( 1.326762908760390423E-13, 1.199999999999995293, 38.00000000000000000 ) ) ;
#53 = DIRECTION ( 'NONE',  ( 1.000000000000000000, 0.000000000000000000, -3.491481338843132961E-15 ) ) ;
#54 = VERTEX_POINT ( 'NONE', #103 ) ;
#55 = DIRECTION ( 'NONE',  ( 1.000000000000000000, 0.000000000000000000, -3.614007241618349165E-15 ) ) ;
#56 = UNCERTAINTY_MEASURE_WITH_UNIT (LENGTH_MEASURE( 1.000000000000000082E-05 ), #125, 'distance_accuracy_value', 'NONE');
#57 = CIRCLE ( 'NONE', #143, 0.2999999999999999334 ) ;
#58 = ORIENTED_EDGE ( 'NONE', *, *, #42, .F. ) ;
#59 = EDGE_LOOP ( 'NONE', ( #80 ) ) ;
#60 = PLANE ( 'NONE',  #116 ) ;
#61 = PLANE ( 'NONE',  #87 ) ;
#62 = COORDINATED_UNIVERSAL_TIME_OFFSET ( 1, 0, .AHEAD. ) ;
#63 = PERSON_AND_ORGANIZATION ( #49, #13 ) ;
#64 = AXIS2_PLACEMENT_3D ( 'NONE', #41, #133, #194 ) ;
#65 = SECURITY_CLASSIFICATION_LEVEL ( 'unclassified' ) ;
#66 = CALENDAR_DATE ( 2023, 1, 2 ) ;
#67 = DATE_AND_TIME ( #82, #68 ) ;
#68 = LOCAL_TIME ( 16, 37, 47.00000000000000000, #62 ) ;
#69 = VERTEX_POINT ( 'NONE', #202 ) ;
#70 = ADVANCED_BREP_SHAPE_REPRESENTATION ( '977818', ( #109, #26, #39 ), #152 ) ;
#71 = CARTESIAN_POINT ( 'NONE',  ( 1.316288464743861212E-13, 1.499999999999995337, 37.69999999999999574 ) ) ;
#72 = CARTESIAN_POINT ( 'NONE',  ( 2.094888803305876463E-15, 0.000000000000000000, 0.5999999999999989786 ) ) ;
#73 = DIRECTION ( 'NONE',  ( -3.491481338843133355E-15, 1.224646799147353207E-16, -1.000000000000000000 ) ) ;
#74 = CARTESIAN_POINT ( 'NONE',  ( 2.094888803305879619E-15, 0.000000000000000000, 0.5999999999999999778 ) ) ;
#75 = ADVANCED_FACE ( 'NONE', ( #1, #78 ), #45, .T. ) ;
#76 = PRODUCT_DEFINITION_SHAPE ( 'NONE', 'NONE',  #120 ) ;
#77 = PRODUCT_DEFINITION_FORMATION_WITH_SPECIFIED_SOURCE ( 'ANY', '', #127, .NOT_KNOWN. ) ;
#78 = FACE_OUTER_BOUND ( 'NONE', #130, .T. ) ;
#79 = CARTESIAN_POINT ( 'NONE',  ( 2.094888803305878830E-15, -8.673617379884030542E-17, 0.5999999999999997558 ) ) ;
#80 = ORIENTED_EDGE ( 'NONE', *, *, #170, .T. ) ;
#81 = DIRECTION ( 'NONE',  ( -4.275831445896958607E-31, -1.000000000000000000, -1.224646799147353207E-16 ) ) ;
#82 = CALENDAR_DATE ( 2023, 1, 2 ) ;
#83 = PRODUCT_RELATED_PRODUCT_CATEGORY ( 'detail', '', ( #127 ) ) ;
#84 = PERSON_AND_ORGANIZATION_ROLE ( 'design_supplier' ) ;
#85 = ADVANCED_FACE ( 'NONE', ( #110, #174 ), #204, .T. ) ;
#86 = COORDINATED_UNIVERSAL_TIME_OFFSET ( 1, 0, .AHEAD. ) ;
#87 = AXIS2_PLACEMENT_3D ( 'NONE', #176, #21, #97 ) ;
#88 = CALENDAR_DATE ( 2023, 1, 2 ) ;
#89 = DIRECTION ( 'NONE',  ( 1.000000000000000000, 0.000000000000000000, -3.491481338843132961E-15 ) ) ;
#90 = PERSON_AND_ORGANIZATION ( #49, #13 ) ;
#91 = DIRECTION ( 'NONE',  ( 3.491481338843133355E-15, -0.000000000000000000, 1.000000000000000000 ) ) ;
#92 = DIRECTION ( 'NONE',  ( 4.275831445896958607E-31, 1.000000000000000000, 1.224646799147353207E-16 ) ) ;
#93 = FACE_OUTER_BOUND ( 'NONE', #162, .T. ) ;
#94 = CLOSED_SHELL ( 'NONE', ( #85, #75, #185, #136, #25 ) ) ;
#95 = EDGE_LOOP ( 'NONE', ( #146 ) ) ;
#96 = ORIENTED_EDGE ( 'NONE', *, *, #158, .T. ) ;
#97 = DIRECTION ( 'NONE',  ( -4.275831445896958607E-31, -1.000000000000000000, -1.224646799147353207E-16 ) ) ;
#98 = LOCAL_TIME ( 16, 37, 47.00000000000000000, #86 ) ;
#99 = PERSON_AND_ORGANIZATION ( #49, #13 ) ;
#100 = CC_DESIGN_PERSON_AND_ORGANIZATION_ASSIGNMENT ( #63, #135, ( #175 ) ) ;
#101 = APPROVAL_ROLE ( '' ) ;
#102 = CC_DESIGN_PERSON_AND_ORGANIZATION_ASSIGNMENT ( #90, #122, ( #127 ) ) ;
#103 = CARTESIAN_POINT ( 'NONE',  ( 0.3000000000000020428, 0.000000000000000000, 0.5999999999999978684 ) ) ;
#104 = APPROVAL_STATUS ( 'not_yet_approved' ) ;
#105 = DIRECTION ( 'NONE',  ( 1.000000000000000000, 0.000000000000000000, -3.491481338843132961E-15 ) ) ;
#106 = DIRECTION ( 'NONE',  ( 0.000000000000000000, 1.000000000000000000, 0.000000000000000000 ) ) ;
#107 = CC_DESIGN_SECURITY_CLASSIFICATION ( #175, ( #77 ) ) ;
#108 = ORIENTED_EDGE ( 'NONE', *, *, #158, .F. ) ;
#109 = MANIFOLD_SOLID_BREP ( 'Corps-Déplacer/Copier1[1]', #94 ) ;
#110 = FACE_OUTER_BOUND ( 'NONE', #5, .T. ) ;
#111 = CIRCLE ( 'NONE', #123, 1.199999999999999956 ) ;
#112 = DIRECTION ( 'NONE',  ( -1.000000000000000000, 0.000000000000000000, 3.469446951953614189E-15 ) ) ;
#113 = EDGE_LOOP ( 'NONE', ( #131 ) ) ;
#114 = DIRECTION ( 'NONE',  ( -3.491481338843133355E-15, 1.224646799147353207E-16, -1.000000000000000000 ) ) ;
#115 = APPROVAL_DATE_TIME ( #10, #22 ) ;
#116 = AXIS2_PLACEMENT_3D ( 'NONE', #79, #209, #81 ) ;
#117 = APPROVAL_ROLE ( '' ) ;
#118 = CALENDAR_DATE ( 2023, 1, 2 ) ;
#119 = DIRECTION ( 'NONE',  ( 3.491481338843133355E-15, -0.000000000000000000, 1.000000000000000000 ) ) ;
#120 = PRODUCT_DEFINITION ( 'UNKNOWN', '', #77, #51 ) ;
#121 = VERTEX_POINT ( 'NONE', #52 ) ;
#122 = PERSON_AND_ORGANIZATION_ROLE ( 'design_owner' ) ;
#123 = AXIS2_PLACEMENT_3D ( 'NONE', #200, #124, #106 ) ;
#124 = DIRECTION ( 'NONE',  ( -3.491481338843133355E-15, 1.224646799147353207E-16, -1.000000000000000000 ) ) ;
#125 =( LENGTH_UNIT ( ) NAMED_UNIT ( * ) SI_UNIT ( .MILLI., .METRE. ) );
#126 = FACE_OUTER_BOUND ( 'NONE', #132, .T. ) ;
#127 = PRODUCT ( '977818', '977818', '', ( #198 ) ) ;
#128 = AXIS2_PLACEMENT_3D ( 'NONE', #15, #17, #169 ) ;
#129 = ADVANCED_FACE ( 'NONE', ( #93, #156 ), #222, .T. ) ;
#130 = EDGE_LOOP ( 'NONE', ( #164 ) ) ;
#131 = ORIENTED_EDGE ( 'NONE', *, *, #44, .F. ) ;
#132 = EDGE_LOOP ( 'NONE', ( #58 ) ) ;
#133 = DIRECTION ( 'NONE',  ( 3.491481338843133355E-15, -0.000000000000000000, 1.000000000000000000 ) ) ;
#134 = AXIS2_PLACEMENT_3D ( 'NONE', #205, #191, #36 ) ;
#135 = PERSON_AND_ORGANIZATION_ROLE ( 'classification_officer' ) ;
#136 = ADVANCED_FACE ( 'NONE', ( #126, #189 ), #168, .F. ) ;
#137 = CARTESIAN_POINT ( 'NONE',  ( 0.3000000000000020428, 0.000000000000000000, 0.5999999999999978684 ) ) ;
#138 = DIRECTION ( 'NONE',  ( 3.491481338843133355E-15, -0.000000000000000000, 1.000000000000000000 ) ) ;
#139 = CIRCLE ( 'NONE', #215, 1.499999999999999778 ) ;
#140 = CARTESIAN_POINT ( 'NONE',  ( 0.000000000000000000, 0.000000000000000000, 0.000000000000000000 ) ) ;
#141 = APPLICATION_CONTEXT ( 'configuration controlled 3d designs of mechanical parts and assemblies' ) ;
#142 = CC_DESIGN_DATE_AND_TIME_ASSIGNMENT ( #214, #210, ( #120 ) ) ;
#143 = AXIS2_PLACEMENT_3D ( 'NONE', #72, #203, #55 ) ;
#144 = ORIENTED_EDGE ( 'NONE', *, *, #221, .T. ) ;
#145 = ORIENTED_EDGE ( 'NONE', *, *, #42, .T. ) ;
#146 = ORIENTED_EDGE ( 'NONE', *, *, #170, .F. ) ;
#147 = COORDINATED_UNIVERSAL_TIME_OFFSET ( 1, 0, .AHEAD. ) ;
#148 = CIRCLE ( 'NONE', #64, 0.2999999999999999334 ) ;
#149 = DATE_AND_TIME ( #118, #98 ) ;
#150 = PERSON_AND_ORGANIZATION ( #49, #13 ) ;
#151 = PERSON_AND_ORGANIZATION_ROLE ( 'creator' ) ;
#152 =( GEOMETRIC_REPRESENTATION_CONTEXT ( 3 ) GLOBAL_UNCERTAINTY_ASSIGNED_CONTEXT ( ( #56 ) ) GLOBAL_UNIT_ASSIGNED_CONTEXT ( ( #125, #184, #30 ) ) REPRESENTATION_CONTEXT ( 'NONE', 'WORKASPACE' ) );
#153 = CARTESIAN_POINT ( 'NONE',  ( -3.206873584422719393E-31, 1.124819836996393206E-32, -9.184850993605149670E-17 ) ) ;
#154 = DIRECTION ( 'NONE',  ( 1.000000000000000000, 0.000000000000000000, 0.000000000000000000 ) ) ;
#155 = VERTEX_POINT ( 'NONE', #216 ) ;
#156 = FACE_OUTER_BOUND ( 'NONE', #40, .T. ) ;
#157 = CC_DESIGN_APPROVAL ( #217, ( #120 ) ) ;
#158 = EDGE_CURVE ( 'NONE', #188, #188, #57, .T. ) ;
#159 = CC_DESIGN_PERSON_AND_ORGANIZATION_ASSIGNMENT ( #150, #84, ( #77 ) ) ;
#160 = DIRECTION ( 'NONE',  ( 0.000000000000000000, 1.000000000000000000, 0.000000000000000000 ) ) ;
#161 = CIRCLE ( 'NONE', #208, 0.2999999999999999334 ) ;
#162 = EDGE_LOOP ( 'NONE', ( #144 ) ) ;
#163 = FACE_OUTER_BOUND ( 'NONE', #113, .T. ) ;
#164 = ORIENTED_EDGE ( 'NONE', *, *, #47, .F. ) ;
#165 = APPROVAL_STATUS ( 'not_yet_approved' ) ;
#166 = COORDINATED_UNIVERSAL_TIME_OFFSET ( 1, 0, .AHEAD. ) ;
#167 = CC_DESIGN_APPROVAL ( #211, ( #77 ) ) ;
#168 = TOROIDAL_SURFACE ( 'NONE', #32, 8.300000000000000711, 8.000000000000000000 ) ;
#169 = DIRECTION ( 'NONE',  ( 4.275831445896959482E-31, 1.000000000000000000, 1.224646799147353207E-16 ) ) ;
#170 = EDGE_CURVE ( 'NONE', #121, #121, #111, .T. ) ;
#171 = DIRECTION ( 'NONE',  ( 4.275831445896958607E-31, 1.000000000000000000, 1.224646799147353207E-16 ) ) ;
#172 = DIRECTION ( 'NONE',  ( -3.491481338843133355E-15, 1.224646799147353207E-16, -1.000000000000000000 ) ) ;
#173 = CARTESIAN_POINT ( 'NONE',  ( 1.316288464743861212E-13, -4.616918432785521081E-15, 37.69999999999999574 ) ) ;
#174 = FACE_OUTER_BOUND ( 'NONE', #3, .T. ) ;
#175 = SECURITY_CLASSIFICATION ( '', '', #65 ) ;
#176 = CARTESIAN_POINT ( 'NONE',  ( 2.094888803305878830E-15, -8.673617379884030542E-17, 0.5999999999999997558 ) ) ;
#177 = DIRECTION ( 'NONE',  ( 3.491481338843133355E-15, -0.000000000000000000, 1.000000000000000000 ) ) ;
#178 = DATE_TIME_ROLE ( 'classification_date' ) ;
#179 = APPROVAL_PERSON_ORGANIZATION ( #195, #22, #101 ) ;
#180 = SHAPE_DEFINITION_REPRESENTATION ( #76, #70 ) ;
#181 = APPROVAL_STATUS ( 'not_yet_approved' ) ;
#182 = AXIS2_PLACEMENT_3D ( 'NONE', #35, #172, #171 ) ;
#183 = CC_DESIGN_PERSON_AND_ORGANIZATION_ASSIGNMENT ( #99, #151, ( #120 ) ) ;
#184 =( NAMED_UNIT ( * ) PLANE_ANGLE_UNIT ( ) SI_UNIT ( $, .RADIAN. ) );
#185 = ADVANCED_FACE ( 'NONE', ( #187 ), #34, .F. ) ;
#186 = APPLICATION_PROTOCOL_DEFINITION ( 'international standard', 'config_control_design', 1994, #19 ) ;
#187 = FACE_OUTER_BOUND ( 'NONE', #95, .T. ) ;
#188 = VERTEX_POINT ( 'NONE', #137 ) ;
#189 = FACE_OUTER_BOUND ( 'NONE', #18, .T. ) ;
#190 = LOCAL_TIME ( 16, 37, 47.00000000000000000, #8 ) ;
#191 = DIRECTION ( 'NONE',  ( -3.491481338843133355E-15, 1.224646799147353207E-16, -1.000000000000000000 ) ) ;
#192 = FACE_OUTER_BOUND ( 'NONE', #206, .T. ) ;
#193 = APPROVAL_PERSON_ORGANIZATION ( #48, #211, #117 ) ;
#194 = DIRECTION ( 'NONE',  ( 1.000000000000000000, 0.000000000000000000, -3.614007241618349165E-15 ) ) ;
#195 = PERSON_AND_ORGANIZATION ( #49, #13 ) ;
#196 = CC_DESIGN_APPROVAL ( #22, ( #175 ) ) ;
#197 = AXIS2_PLACEMENT_3D ( 'NONE', #38, #177, #112 ) ;
#198 = MECHANICAL_CONTEXT ( 'NONE', #141, 'mechanical' ) ;
#199 = ADVANCED_FACE ( 'NONE', ( #219 ), #218, .T. ) ;
#200 = CARTESIAN_POINT ( 'NONE',  ( 1.326762908760390423E-13, -4.653657836759941941E-15, 38.00000000000000000 ) ) ;
#201 = LOCAL_TIME ( 16, 37, 47.00000000000000000, #166 ) ;
#202 = CARTESIAN_POINT ( 'NONE',  ( 0.2999999999999999334, 0.000000000000000000, -1.414838441397145648E-15 ) ) ;
#203 = DIRECTION ( 'NONE',  ( 3.491481338843133355E-15, -0.000000000000000000, 1.000000000000000000 ) ) ;
#204 = CYLINDRICAL_SURFACE ( 'NONE', #128, 1.500000000000000000 ) ;
#205 = CARTESIAN_POINT ( 'NONE',  ( 1.316288464743861212E-13, -4.616918432785521081E-15, 37.69999999999999574 ) ) ;
#206 = EDGE_LOOP ( 'NONE', ( #96 ) ) ;
#207 = ORIENTED_EDGE ( 'NONE', *, *, #221, .F. ) ;
#208 = AXIS2_PLACEMENT_3D ( 'NONE', #12, #119, #89 ) ;
#209 = DIRECTION ( 'NONE',  ( 3.491481338843133355E-15, -1.224646799147353207E-16, 1.000000000000000000 ) ) ;
#210 = DATE_TIME_ROLE ( 'creation_date' ) ;
#211 = APPROVAL ( #165, 'UNSPECIFIED' ) ;
#212 = AXIS2_PLACEMENT_3D ( 'NONE', #153, #73, #92 ) ;
#213 = PERSON_AND_ORGANIZATION ( #49, #13 ) ;
#214 = DATE_AND_TIME ( #46, #201 ) ;
#215 = AXIS2_PLACEMENT_3D ( 'NONE', #173, #114, #160 ) ;
#216 = CARTESIAN_POINT ( 'NONE',  ( -1.499999999999983125, 0.000000000000000000, 4.814261501141099409 ) ) ;
#217 = APPROVAL ( #104, 'UNSPECIFIED' ) ;
#218 = PLANE ( 'NONE',  #212 ) ;
#219 = FACE_OUTER_BOUND ( 'NONE', #23, .T. ) ;
#220 = VERTEX_POINT ( 'NONE', #71 ) ;
#221 = EDGE_CURVE ( 'NONE', #69, #69, #161, .T. ) ;
#222 = CYLINDRICAL_SURFACE ( 'NONE', #223, 0.2999999999999999334 ) ;
#223 = AXIS2_PLACEMENT_3D ( 'NONE', #140, #91, #53 ) ;
ENDSEC;
END-ISO-10303-21;
