ISO-10303-21;
HEADER;
FILE_DESCRIPTION (( 'STEP AP203' ),
    '1' );
FILE_NAME ('977817.step',
    '2023-02-01T15:37:46',
    ( '' ),
    ( '' ),
    'SwSTEP 2.0',
    'SolidWorks 2019',
    '' );
FILE_SCHEMA (( 'CONFIG_CONTROL_DESIGN' ));
ENDSEC;

DATA;
#1 = AXIS2_PLACEMENT_3D ( 'NONE', #203, #151, #29 ) ;
#2 = LOCAL_TIME ( 16, 37, 46.00000000000000000, #213 ) ;
#3 = SECURITY_CLASSIFICATION ( '', '', #123 ) ;
#4 = ORIENTED_EDGE ( 'NONE', *, *, #117, .F. ) ;
#5 = DIRECTION ( 'NONE',  ( -3.491481338843133355E-15, 1.224646799147353207E-16, -1.000000000000000000 ) ) ;
#6 = CARTESIAN_POINT ( 'NONE',  ( 1.745740669421566678E-15, 0.000000000000000000, 0.5000000000000000000 ) ) ;
#7 = DATE_AND_TIME ( #178, #2 ) ;
#8 = PLANE ( 'NONE',  #22 ) ;
#9 = APPROVAL_DATE_TIME ( #7, #34 ) ;
#10 = EDGE_LOOP ( 'NONE', ( #156 ) ) ;
#11 = SHAPE_DEFINITION_REPRESENTATION ( #47, #208 ) ;
#12 = CALENDAR_DATE ( 2023, 1, 2 ) ;
#13 = AXIS2_PLACEMENT_3D ( 'NONE', #23, #26, #90 ) ;
#14 = DIRECTION ( 'NONE',  ( -1.000000000000000000, 0.000000000000000000, 3.469446951953614189E-15 ) ) ;
#15 = CARTESIAN_POINT ( 'NONE',  ( 0.2500000000000019429, 0.000000000000000000, 0.4999999999999981681 ) ) ;
#16 = LOCAL_TIME ( 16, 37, 46.00000000000000000, #172 ) ;
#17 = CARTESIAN_POINT ( 'NONE',  ( 1.673778099952152609E-14, 0.000000000000000000, 4.793891009329415809 ) ) ;
#18 = DIRECTION ( 'NONE',  ( 0.000000000000000000, 1.000000000000000000, 0.000000000000000000 ) ) ;
#19 = CC_DESIGN_APPROVAL ( #34, ( #3 ) ) ;
#20 = DIRECTION ( 'NONE',  ( 1.000000000000000000, 0.000000000000000000, -3.491481338843133355E-15 ) ) ;
#21 = CC_DESIGN_DATE_AND_TIME_ASSIGNMENT ( #89, #44, ( #3 ) ) ;
#22 = AXIS2_PLACEMENT_3D ( 'NONE', #141, #5, #120 ) ;
#23 = CARTESIAN_POINT ( 'NONE',  ( 1.745740669421565889E-15, -7.228014483236693351E-17, 0.4999999999999997780 ) ) ;
#24 = DIRECTION ( 'NONE',  ( -3.491481338843133355E-15, 1.224646799147353207E-16, -1.000000000000000000 ) ) ;
#25 = DATE_AND_TIME ( #12, #194 ) ;
#26 = DIRECTION ( 'NONE',  ( 3.491481338843133355E-15, -1.224646799147353207E-16, 1.000000000000000000 ) ) ;
#27 = PERSON_AND_ORGANIZATION ( #188, #98 ) ;
#28 = COORDINATED_UNIVERSAL_TIME_OFFSET ( 1, 0, .AHEAD. ) ;
#29 = DIRECTION ( 'NONE',  ( 1.000000000000000000, 0.000000000000000000, -3.491481338843133355E-15 ) ) ;
#30 = DIRECTION ( 'NONE',  ( 3.491481338843133355E-15, -0.000000000000000000, 1.000000000000000000 ) ) ;
#31 = APPROVAL_PERSON_ORGANIZATION ( #113, #34, #157 ) ;
#32 = CARTESIAN_POINT ( 'NONE',  ( -1.499999999999983347, 0.000000000000000000, 4.793891009329421138 ) ) ;
#33 = ADVANCED_FACE ( 'NONE', ( #39 ), #8, .F. ) ;
#34 = APPROVAL ( #177, 'UNSPECIFIED' ) ;
#35 = PRODUCT_RELATED_PRODUCT_CATEGORY ( 'detail', '', ( #201 ) ) ;
#36 = PLANE ( 'NONE',  #73 ) ;
#37 = AXIS2_PLACEMENT_3D ( 'NONE', #134, #187, #18 ) ;
#38 = ADVANCED_FACE ( 'NONE', ( #145, #160 ), #148, .F. ) ;
#39 = FACE_OUTER_BOUND ( 'NONE', #59, .T. ) ;
#40 = ADVANCED_FACE ( 'NONE', ( #171 ), #110, .T. ) ;
#41 = DIRECTION ( 'NONE',  ( 3.491481338843133355E-15, -0.000000000000000000, 1.000000000000000000 ) ) ;
#42 = DIRECTION ( 'NONE',  ( 3.491481338843133355E-15, -0.000000000000000000, 1.000000000000000000 ) ) ;
#43 = ADVANCED_FACE ( 'NONE', ( #125 ), #36, .T. ) ;
#44 = DATE_TIME_ROLE ( 'classification_date' ) ;
#45 = CC_DESIGN_APPROVAL ( #184, ( #72 ) ) ;
#46 = PERSON_AND_ORGANIZATION_ROLE ( 'creator' ) ;
#47 = PRODUCT_DEFINITION_SHAPE ( 'NONE', 'NONE',  #101 ) ;
#48 = PERSON_AND_ORGANIZATION_ROLE ( 'design_owner' ) ;
#49 = CARTESIAN_POINT ( 'NONE',  ( 0.2500000000000000000, 0.000000000000000000, -1.240264374454989375E-15 ) ) ;
#50 = DIRECTION ( 'NONE',  ( -3.491481338843133355E-15, 1.224646799147353207E-16, -1.000000000000000000 ) ) ;
#51 = FACE_OUTER_BOUND ( 'NONE', #55, .T. ) ;
#52 = UNCERTAINTY_MEASURE_WITH_UNIT (LENGTH_MEASURE( 1.000000000000000082E-05 ), #65, 'distance_accuracy_value', 'NONE');
#53 = VERTEX_POINT ( 'NONE', #70 ) ;
#54 = ORIENTED_EDGE ( 'NONE', *, *, #69, .F. ) ;
#55 = EDGE_LOOP ( 'NONE', ( #106 ) ) ;
#56 = APPLICATION_CONTEXT ( 'configuration controlled 3d designs of mechanical parts and assemblies' ) ;
#57 = ORIENTED_EDGE ( 'NONE', *, *, #165, .F. ) ;
#58 = APPROVAL_ROLE ( '' ) ;
#59 = EDGE_LOOP ( 'NONE', ( #54 ) ) ;
#60 = MANIFOLD_SOLID_BREP ( 'Corps-Déplacer/Copier1[2]', #119 ) ;
#61 = PERSON_AND_ORGANIZATION ( #188, #98 ) ;
#62 = APPROVAL_STATUS ( 'not_yet_approved' ) ;
#63 = AXIS2_PLACEMENT_3D ( 'NONE', #116, #30, #85 ) ;
#64 = DATE_TIME_ROLE ( 'creation_date' ) ;
#65 =( LENGTH_UNIT ( ) NAMED_UNIT ( * ) SI_UNIT ( .MILLI., .METRE. ) );
#66 = VERTEX_POINT ( 'NONE', #96 ) ;
#67 = DIRECTION ( 'NONE',  ( 4.275831445896959482E-31, 1.000000000000000000, 1.224646799147353207E-16 ) ) ;
#68 = CC_DESIGN_PERSON_AND_ORGANIZATION_ASSIGNMENT ( #93, #91, ( #3 ) ) ;
#69 = EDGE_CURVE ( 'NONE', #53, #53, #185, .T. ) ;
#70 = CARTESIAN_POINT ( 'NONE',  ( 1.326762908760390423E-13, 1.199999999999995293, 38.00000000000000000 ) ) ;
#71 = DIRECTION ( 'NONE',  ( 3.491481338843133355E-15, -0.000000000000000000, 1.000000000000000000 ) ) ;
#72 = PRODUCT_DEFINITION_FORMATION_WITH_SPECIFIED_SOURCE ( 'ANY', '', #201, .NOT_KNOWN. ) ;
#73 = AXIS2_PLACEMENT_3D ( 'NONE', #88, #24, #192 ) ;
#74 = ADVANCED_FACE ( 'NONE', ( #170, #77 ), #214, .T. ) ;
#75 = EDGE_LOOP ( 'NONE', ( #212 ) ) ;
#76 = CARTESIAN_POINT ( 'NONE',  ( 1.745740669421563325E-15, 0.000000000000000000, 0.4999999999999990563 ) ) ;
#77 = FACE_OUTER_BOUND ( 'NONE', #175, .T. ) ;
#78 = DIRECTION ( 'NONE',  ( 1.000000000000000000, 0.000000000000000000, 0.000000000000000000 ) ) ;
#79 = EDGE_CURVE ( 'NONE', #222, #222, #118, .T. ) ;
#80 = EDGE_LOOP ( 'NONE', ( #210 ) ) ;
#81 = ORIENTED_EDGE ( 'NONE', *, *, #220, .T. ) ;
#82 = PERSON_AND_ORGANIZATION_ROLE ( 'creator' ) ;
#83 = APPROVAL_DATE_TIME ( #143, #87 ) ;
#84 =( GEOMETRIC_REPRESENTATION_CONTEXT ( 3 ) GLOBAL_UNCERTAINTY_ASSIGNED_CONTEXT ( ( #52 ) ) GLOBAL_UNIT_ASSIGNED_CONTEXT ( ( #65, #202, #186 ) ) REPRESENTATION_CONTEXT ( 'NONE', 'WORKASPACE' ) );
#85 = DIRECTION ( 'NONE',  ( 1.000000000000000000, 0.000000000000000000, -3.469446951953611033E-15 ) ) ;
#86 = DIRECTION ( 'NONE',  ( 3.491481338843133355E-15, -1.224646799147353207E-16, 1.000000000000000000 ) ) ;
#87 = APPROVAL ( #111, 'UNSPECIFIED' ) ;
#88 = CARTESIAN_POINT ( 'NONE',  ( -3.206873584422719393E-31, 1.124819836996393206E-32, -9.184850993605149670E-17 ) ) ;
#89 = DATE_AND_TIME ( #161, #149 ) ;
#90 = DIRECTION ( 'NONE',  ( -4.275831445896958607E-31, -1.000000000000000000, -1.224646799147353207E-16 ) ) ;
#91 = PERSON_AND_ORGANIZATION_ROLE ( 'classification_officer' ) ;
#92 = DIRECTION ( 'NONE',  ( -3.491481338843133355E-15, 1.224646799147353207E-16, -1.000000000000000000 ) ) ;
#93 = PERSON_AND_ORGANIZATION ( #188, #98 ) ;
#94 = PERSON_AND_ORGANIZATION_ROLE ( 'design_supplier' ) ;
#95 = CIRCLE ( 'NONE', #181, 1.499999999999999778 ) ;
#96 = CARTESIAN_POINT ( 'NONE',  ( 0.2500000000000019429, 0.000000000000000000, 0.4999999999999981681 ) ) ;
#97 = FACE_OUTER_BOUND ( 'NONE', #153, .T. ) ;
#98 = ORGANIZATION ( 'UNSPECIFIED', 'UNSPECIFIED', '' ) ;
#99 = DIRECTION ( 'NONE',  ( 1.000000000000000000, 0.000000000000000000, -3.469446951953611033E-15 ) ) ;
#100 = VERTEX_POINT ( 'NONE', #49 ) ;
#101 = PRODUCT_DEFINITION ( 'UNKNOWN', '', #72, #190 ) ;
#102 = CC_DESIGN_APPROVAL ( #87, ( #101 ) ) ;
#103 = CC_DESIGN_PERSON_AND_ORGANIZATION_ASSIGNMENT ( #27, #46, ( #72 ) ) ;
#104 = DIRECTION ( 'NONE',  ( 0.000000000000000000, 1.000000000000000000, 0.000000000000000000 ) ) ;
#105 = APPROVAL_PERSON_ORGANIZATION ( #180, #87, #58 ) ;
#106 = ORIENTED_EDGE ( 'NONE', *, *, #117, .T. ) ;
#107 = PERSON_AND_ORGANIZATION ( #188, #98 ) ;
#108 = APPLICATION_PROTOCOL_DEFINITION ( 'international standard', 'config_control_design', 1994, #217 ) ;
#109 = CC_DESIGN_PERSON_AND_ORGANIZATION_ASSIGNMENT ( #107, #82, ( #101 ) ) ;
#110 = PLANE ( 'NONE',  #13 ) ;
#111 = APPROVAL_STATUS ( 'not_yet_approved' ) ;
#112 = AXIS2_PLACEMENT_3D ( 'NONE', #159, #114, #78 ) ;
#113 = PERSON_AND_ORGANIZATION ( #188, #98 ) ;
#114 = DIRECTION ( 'NONE',  ( 0.000000000000000000, 0.000000000000000000, 1.000000000000000000 ) ) ;
#115 = PLANE ( 'NONE',  #209 ) ;
#116 = CARTESIAN_POINT ( 'NONE',  ( 1.745740669421563325E-15, 0.000000000000000000, 0.4999999999999990563 ) ) ;
#117 = EDGE_CURVE ( 'NONE', #206, #206, #176, .T. ) ;
#118 = CIRCLE ( 'NONE', #179, 0.2500000000000002220 ) ;
#119 = CLOSED_SHELL ( 'NONE', ( #40, #74, #43 ) ) ;
#120 = DIRECTION ( 'NONE',  ( 4.275831445896958607E-31, 1.000000000000000000, 1.224646799147353207E-16 ) ) ;
#121 = ORIENTED_EDGE ( 'NONE', *, *, #79, .T. ) ;
#122 = EDGE_LOOP ( 'NONE', ( #211 ) ) ;
#123 = SECURITY_CLASSIFICATION_LEVEL ( 'unclassified' ) ;
#124 = AXIS2_PLACEMENT_3D ( 'NONE', #142, #42, #20 ) ;
#125 = FACE_OUTER_BOUND ( 'NONE', #80, .T. ) ;
#126 = COORDINATED_UNIVERSAL_TIME_OFFSET ( 1, 0, .AHEAD. ) ;
#127 = ADVANCED_FACE ( 'NONE', ( #167 ), #115, .F. ) ;
#128 = CALENDAR_DATE ( 2023, 1, 2 ) ;
#129 = LOCAL_TIME ( 16, 37, 46.00000000000000000, #126 ) ;
#130 = AXIS2_PLACEMENT_3D ( 'NONE', #223, #183, #67 ) ;
#131 = MANIFOLD_SOLID_BREP ( 'Corps-Déplacer/Copier1[1]', #191 ) ;
#132 = CYLINDRICAL_SURFACE ( 'NONE', #130, 1.500000000000000000 ) ;
#133 = CARTESIAN_POINT ( 'NONE',  ( 1.745740669421565889E-15, -7.228014483236693351E-17, 0.4999999999999997780 ) ) ;
#134 = CARTESIAN_POINT ( 'NONE',  ( 1.316288464743861212E-13, -4.616918432785521081E-15, 37.69999999999999574 ) ) ;
#135 = CONICAL_SURFACE ( 'NONE', #37, 1.499999999999999778, 0.7853981633974453924 ) ;
#136 = DIRECTION ( 'NONE',  ( 0.000000000000000000, 1.000000000000000000, 0.000000000000000000 ) ) ;
#137 = CC_DESIGN_DATE_AND_TIME_ASSIGNMENT ( #174, #64, ( #101 ) ) ;
#138 = ADVANCED_FACE ( 'NONE', ( #205, #51 ), #132, .T. ) ;
#139 = APPROVAL_PERSON_ORGANIZATION ( #61, #184, #219 ) ;
#140 = EDGE_LOOP ( 'NONE', ( #4 ) ) ;
#141 = CARTESIAN_POINT ( 'NONE',  ( 1.326762908760390423E-13, 8.998558695971077224E-33, 38.00000000000000000 ) ) ;
#142 = CARTESIAN_POINT ( 'NONE',  ( 0.000000000000000000, 0.000000000000000000, 0.000000000000000000 ) ) ;
#143 = DATE_AND_TIME ( #128, #129 ) ;
#144 = CC_DESIGN_PERSON_AND_ORGANIZATION_ASSIGNMENT ( #198, #94, ( #72 ) ) ;
#145 = FACE_OUTER_BOUND ( 'NONE', #140, .T. ) ;
#146 = ORIENTED_EDGE ( 'NONE', *, *, #69, .T. ) ;
#147 = CALENDAR_DATE ( 2023, 1, 2 ) ;
#148 = TOROIDAL_SURFACE ( 'NONE', #164, 8.250000000000000000, 8.000000000000000000 ) ;
#149 = LOCAL_TIME ( 16, 37, 46.00000000000000000, #215 ) ;
#150 = ADVANCED_FACE ( 'NONE', ( #166, #97 ), #135, .T. ) ;
#151 = DIRECTION ( 'NONE',  ( 3.491481338843133355E-15, -0.000000000000000000, 1.000000000000000000 ) ) ;
#152 = CARTESIAN_POINT ( 'NONE',  ( 1.316288464743861212E-13, 1.499999999999995337, 37.69999999999999574 ) ) ;
#153 = EDGE_LOOP ( 'NONE', ( #193 ) ) ;
#154 = CC_DESIGN_SECURITY_CLASSIFICATION ( #3, ( #72 ) ) ;
#155 = EDGE_LOOP ( 'NONE', ( #121 ) ) ;
#156 = ORIENTED_EDGE ( 'NONE', *, *, #79, .F. ) ;
#157 = APPROVAL_ROLE ( '' ) ;
#158 = CARTESIAN_POINT ( 'NONE',  ( 1.326762908760390423E-13, -4.653657836759941941E-15, 38.00000000000000000 ) ) ;
#159 = CARTESIAN_POINT ( 'NONE',  ( 0.000000000000000000, 0.000000000000000000, 0.000000000000000000 ) ) ;
#160 = FACE_OUTER_BOUND ( 'NONE', #155, .T. ) ;
#161 = CALENDAR_DATE ( 2023, 1, 2 ) ;
#162 = MECHANICAL_CONTEXT ( 'NONE', #56, 'mechanical' ) ;
#163 = CIRCLE ( 'NONE', #1, 0.2500000000000000000 ) ;
#164 = AXIS2_PLACEMENT_3D ( 'NONE', #6, #41, #173 ) ;
#165 = EDGE_CURVE ( 'NONE', #66, #66, #169, .T. ) ;
#166 = FACE_BOUND ( 'NONE', #197, .T. ) ;
#167 = FACE_OUTER_BOUND ( 'NONE', #10, .T. ) ;
#168 = VERTEX_POINT ( 'NONE', #152 ) ;
#169 = CIRCLE ( 'NONE', #63, 0.2500000000000002220 ) ;
#170 = FACE_OUTER_BOUND ( 'NONE', #75, .T. ) ;
#171 = FACE_OUTER_BOUND ( 'NONE', #122, .T. ) ;
#172 = COORDINATED_UNIVERSAL_TIME_OFFSET ( 1, 0, .AHEAD. ) ;
#173 = DIRECTION ( 'NONE',  ( 1.000000000000000000, 0.000000000000000000, -3.491481338843133750E-15 ) ) ;
#174 = DATE_AND_TIME ( #147, #16 ) ;
#175 = EDGE_LOOP ( 'NONE', ( #57 ) ) ;
#176 = CIRCLE ( 'NONE', #218, 1.500000000000000000 ) ;
#177 = APPROVAL_STATUS ( 'not_yet_approved' ) ;
#178 = CALENDAR_DATE ( 2023, 1, 2 ) ;
#179 = AXIS2_PLACEMENT_3D ( 'NONE', #76, #189, #99 ) ;
#180 = PERSON_AND_ORGANIZATION ( #188, #98 ) ;
#181 = AXIS2_PLACEMENT_3D ( 'NONE', #207, #50, #136 ) ;
#182 = CC_DESIGN_PERSON_AND_ORGANIZATION_ASSIGNMENT ( #216, #48, ( #201 ) ) ;
#183 = DIRECTION ( 'NONE',  ( -3.491481338843133355E-15, 1.224646799147353207E-16, -1.000000000000000000 ) ) ;
#184 = APPROVAL ( #62, 'UNSPECIFIED' ) ;
#185 = CIRCLE ( 'NONE', #204, 1.199999999999999956 ) ;
#186 =( NAMED_UNIT ( * ) SI_UNIT ( $, .STERADIAN. ) SOLID_ANGLE_UNIT ( ) );
#187 = DIRECTION ( 'NONE',  ( -3.491481338843133355E-15, 1.224646799147353207E-16, -1.000000000000000000 ) ) ;
#188 = PERSON ( 'UNSPECIFIED', 'UNSPECIFIED', 'UNSPECIFIED', ('UNSPECIFIED'), ('UNSPECIFIED'), ('UNSPECIFIED') ) ;
#189 = DIRECTION ( 'NONE',  ( 3.491481338843133355E-15, -0.000000000000000000, 1.000000000000000000 ) ) ;
#190 = DESIGN_CONTEXT ( 'detailed design', #217, 'design' ) ;
#191 = CLOSED_SHELL ( 'NONE', ( #138, #150, #33, #38, #127 ) ) ;
#192 = DIRECTION ( 'NONE',  ( 4.275831445896958607E-31, 1.000000000000000000, 1.224646799147353207E-16 ) ) ;
#193 = ORIENTED_EDGE ( 'NONE', *, *, #220, .F. ) ;
#194 = LOCAL_TIME ( 16, 37, 46.00000000000000000, #28 ) ;
#195 = EDGE_LOOP ( 'NONE', ( #81 ) ) ;
#196 = APPLICATION_PROTOCOL_DEFINITION ( 'international standard', 'config_control_design', 1994, #56 ) ;
#197 = EDGE_LOOP ( 'NONE', ( #146 ) ) ;
#198 = PERSON_AND_ORGANIZATION ( #188, #98 ) ;
#199 = APPROVAL_DATE_TIME ( #25, #184 ) ;
#200 = EDGE_CURVE ( 'NONE', #100, #100, #163, .T. ) ;
#201 = PRODUCT ( '977817', '977817', '', ( #162 ) ) ;
#202 =( NAMED_UNIT ( * ) PLANE_ANGLE_UNIT ( ) SI_UNIT ( $, .RADIAN. ) );
#203 = CARTESIAN_POINT ( 'NONE',  ( -1.282749433769087757E-30, 0.000000000000000000, -3.673940397442059868E-16 ) ) ;
#204 = AXIS2_PLACEMENT_3D ( 'NONE', #158, #92, #104 ) ;
#205 = FACE_OUTER_BOUND ( 'NONE', #195, .T. ) ;
#206 = VERTEX_POINT ( 'NONE', #32 ) ;
#207 = CARTESIAN_POINT ( 'NONE',  ( 1.316288464743861212E-13, -4.616918432785521081E-15, 37.69999999999999574 ) ) ;
#208 = ADVANCED_BREP_SHAPE_REPRESENTATION ( '977817', ( #131, #60, #112 ), #84 ) ;
#209 = AXIS2_PLACEMENT_3D ( 'NONE', #133, #86, #221 ) ;
#210 = ORIENTED_EDGE ( 'NONE', *, *, #200, .F. ) ;
#211 = ORIENTED_EDGE ( 'NONE', *, *, #165, .T. ) ;
#212 = ORIENTED_EDGE ( 'NONE', *, *, #200, .T. ) ;
#213 = COORDINATED_UNIVERSAL_TIME_OFFSET ( 1, 0, .AHEAD. ) ;
#214 = CYLINDRICAL_SURFACE ( 'NONE', #124, 0.2500000000000001110 ) ;
#215 = COORDINATED_UNIVERSAL_TIME_OFFSET ( 1, 0, .AHEAD. ) ;
#216 = PERSON_AND_ORGANIZATION ( #188, #98 ) ;
#217 = APPLICATION_CONTEXT ( 'configuration controlled 3d designs of mechanical parts and assemblies' ) ;
#218 = AXIS2_PLACEMENT_3D ( 'NONE', #17, #71, #14 ) ;
#219 = APPROVAL_ROLE ( '' ) ;
#220 = EDGE_CURVE ( 'NONE', #168, #168, #95, .T. ) ;
#221 = DIRECTION ( 'NONE',  ( -4.275831445896958607E-31, -1.000000000000000000, -1.224646799147353207E-16 ) ) ;
#222 = VERTEX_POINT ( 'NONE', #15 ) ;
#223 = CARTESIAN_POINT ( 'NONE',  ( 0.000000000000000000, 0.000000000000000000, 0.000000000000000000 ) ) ;
ENDSEC;
END-ISO-10303-21;
