ISO-10303-21;
HEADER;
FILE_DESCRIPTION (( 'STEP AP203' ),
    '1' );
FILE_NAME ('977816.step',
    '2023-02-01T15:37:45',
    ( '' ),
    ( '' ),
    'SwSTEP 2.0',
    'SolidWorks 2019',
    '' );
FILE_SCHEMA (( 'CONFIG_CONTROL_DESIGN' ));
ENDSEC;

DATA;
#1 = PERSON_AND_ORGANIZATION ( #18, #13 ) ;
#2 = APPROVAL_STATUS ( 'not_yet_approved' ) ;
#3 = AXIS2_PLACEMENT_3D ( 'NONE', #25, #118, #217 ) ;
#4 = PLANE ( 'NONE',  #134 ) ;
#5 = DIRECTION ( 'NONE',  ( 0.000000000000000000, 0.000000000000000000, 1.000000000000000000 ) ) ;
#6 = ORIENTED_EDGE ( 'NONE', *, *, #91, .T. ) ;
#7 = VERTEX_POINT ( 'NONE', #115 ) ;
#8 = FACE_OUTER_BOUND ( 'NONE', #63, .T. ) ;
#9 = DIRECTION ( 'NONE',  ( 3.491481338843133355E-15, -0.000000000000000000, 1.000000000000000000 ) ) ;
#10 = DIRECTION ( 'NONE',  ( 1.000000000000000000, 0.000000000000000000, -3.523657060577880339E-15 ) ) ;
#11 = FACE_OUTER_BOUND ( 'NONE', #113, .T. ) ;
#12 = FACE_OUTER_BOUND ( 'NONE', #129, .T. ) ;
#13 = ORGANIZATION ( 'UNSPECIFIED', 'UNSPECIFIED', '' ) ;
#14 = PRODUCT_DEFINITION_SHAPE ( 'NONE', 'NONE',  #174 ) ;
#15 = AXIS2_PLACEMENT_3D ( 'NONE', #61, #5, #193 ) ;
#16 = APPROVAL_ROLE ( '' ) ;
#17 = PERSON_AND_ORGANIZATION_ROLE ( 'creator' ) ;
#18 = PERSON ( 'UNSPECIFIED', 'UNSPECIFIED', 'UNSPECIFIED', ('UNSPECIFIED'), ('UNSPECIFIED'), ('UNSPECIFIED') ) ;
#19 = PERSON_AND_ORGANIZATION ( #18, #13 ) ;
#20 = APPLICATION_PROTOCOL_DEFINITION ( 'international standard', 'config_control_design', 1994, #158 ) ;
#21 = EDGE_LOOP ( 'NONE', ( #151 ) ) ;
#22 = MANIFOLD_SOLID_BREP ( 'Corps-Déplacer/Copier1[2]', #76 ) ;
#23 = DIRECTION ( 'NONE',  ( 3.491481338843133355E-15, -0.000000000000000000, 1.000000000000000000 ) ) ;
#24 = CARTESIAN_POINT ( 'NONE',  ( 1.326762908760390423E-13, 8.998558695971077224E-33, 38.00000000000000000 ) ) ;
#25 = CARTESIAN_POINT ( 'NONE',  ( 1.665959831630175527E-14, 0.000000000000000000, 4.771498598878876507 ) ) ;
#26 = UNCERTAINTY_MEASURE_WITH_UNIT (LENGTH_MEASURE( 1.000000000000000082E-05 ), #44, 'distance_accuracy_value', 'NONE');
#27 = CARTESIAN_POINT ( 'NONE',  ( 0.2000000000000000944, 0.000000000000000000, -1.065690307512832904E-15 ) ) ;
#28 = DIRECTION ( 'NONE',  ( 3.491481338843133355E-15, -0.000000000000000000, 1.000000000000000000 ) ) ;
#29 = CC_DESIGN_SECURITY_CLASSIFICATION ( #112, ( #116 ) ) ;
#30 = CARTESIAN_POINT ( 'NONE',  ( 1.316288464743861212E-13, -4.616918432785521081E-15, 37.69999999999999574 ) ) ;
#31 = AXIS2_PLACEMENT_3D ( 'NONE', #24, #66, #81 ) ;
#32 = DIRECTION ( 'NONE',  ( 1.000000000000000000, 0.000000000000000000, -3.491481338843133750E-15 ) ) ;
#33 = CC_DESIGN_PERSON_AND_ORGANIZATION_ASSIGNMENT ( #89, #156, ( #116 ) ) ;
#34 = APPROVAL_ROLE ( '' ) ;
#35 = ADVANCED_FACE ( 'NONE', ( #131, #161 ), #197, .T. ) ;
#36 = AXIS2_PLACEMENT_3D ( 'NONE', #120, #69, #100 ) ;
#37 = APPROVAL_DATE_TIME ( #126, #55 ) ;
#38 = DATE_TIME_ROLE ( 'creation_date' ) ;
#39 = COORDINATED_UNIVERSAL_TIME_OFFSET ( 1, 0, .AHEAD. ) ;
#40 = AXIS2_PLACEMENT_3D ( 'NONE', #138, #53, #189 ) ;
#41 = ORIENTED_EDGE ( 'NONE', *, *, #136, .F. ) ;
#42 = ORIENTED_EDGE ( 'NONE', *, *, #84, .F. ) ;
#43 = FACE_OUTER_BOUND ( 'NONE', #182, .T. ) ;
#44 =( LENGTH_UNIT ( ) NAMED_UNIT ( * ) SI_UNIT ( .MILLI., .METRE. ) );
#45 = ADVANCED_FACE ( 'NONE', ( #8 ), #4, .F. ) ;
#46 = ADVANCED_FACE ( 'NONE', ( #88, #71 ), #139, .T. ) ;
#47 = DIRECTION ( 'NONE',  ( -3.491481338843133355E-15, 1.224646799147353207E-16, -1.000000000000000000 ) ) ;
#48 = ORIENTED_EDGE ( 'NONE', *, *, #203, .T. ) ;
#49 =( NAMED_UNIT ( * ) SI_UNIT ( $, .STERADIAN. ) SOLID_ANGLE_UNIT ( ) );
#50 = ADVANCED_FACE ( 'NONE', ( #12 ), #204, .T. ) ;
#51 = CC_DESIGN_DATE_AND_TIME_ASSIGNMENT ( #128, #38, ( #174 ) ) ;
#52 = CC_DESIGN_APPROVAL ( #206, ( #174 ) ) ;
#53 = DIRECTION ( 'NONE',  ( 3.491481338843133355E-15, -1.224646799147353207E-16, 1.000000000000000000 ) ) ;
#54 = CARTESIAN_POINT ( 'NONE',  ( -1.282749433769087757E-30, 0.000000000000000000, -3.673940397442059868E-16 ) ) ;
#55 = APPROVAL ( #179, 'UNSPECIFIED' ) ;
#56 = PERSON_AND_ORGANIZATION ( #18, #13 ) ;
#57 = AXIS2_PLACEMENT_3D ( 'NONE', #214, #28, #82 ) ;
#58 = DATE_AND_TIME ( #75, #99 ) ;
#59 = APPROVAL_DATE_TIME ( #146, #206 ) ;
#60 = EDGE_LOOP ( 'NONE', ( #105 ) ) ;
#61 = CARTESIAN_POINT ( 'NONE',  ( 0.000000000000000000, 0.000000000000000000, 0.000000000000000000 ) ) ;
#62 = CIRCLE ( 'NONE', #178, 0.2000000000000005107 ) ;
#63 = EDGE_LOOP ( 'NONE', ( #80 ) ) ;
#64 = DIRECTION ( 'NONE',  ( 1.000000000000000000, 0.000000000000000000, -3.523657060577880339E-15 ) ) ;
#65 = CARTESIAN_POINT ( 'NONE',  ( 0.2000000000000019262, 0.000000000000000000, 0.3999999999999983014 ) ) ;
#66 = DIRECTION ( 'NONE',  ( -3.491481338843133355E-15, 1.224646799147353207E-16, -1.000000000000000000 ) ) ;
#67 = AXIS2_PLACEMENT_3D ( 'NONE', #199, #150, #83 ) ;
#68 = LOCAL_TIME ( 16, 37, 45.00000000000000000, #209 ) ;
#69 = DIRECTION ( 'NONE',  ( -3.491481338843133355E-15, 1.224646799147353207E-16, -1.000000000000000000 ) ) ;
#70 = ADVANCED_FACE ( 'NONE', ( #154, #11 ), #220, .T. ) ;
#71 = FACE_OUTER_BOUND ( 'NONE', #94, .T. ) ;
#72 = LOCAL_TIME ( 16, 37, 45.00000000000000000, #140 ) ;
#73 = CC_DESIGN_PERSON_AND_ORGANIZATION_ASSIGNMENT ( #180, #17, ( #116 ) ) ;
#74 = MECHANICAL_CONTEXT ( 'NONE', #158, 'mechanical' ) ;
#75 = CALENDAR_DATE ( 2023, 1, 2 ) ;
#76 = CLOSED_SHELL ( 'NONE', ( #50, #35, #108 ) ) ;
#77 = PERSON_AND_ORGANIZATION_ROLE ( 'design_owner' ) ;
#78 = CC_DESIGN_PERSON_AND_ORGANIZATION_ASSIGNMENT ( #160, #77, ( #177 ) ) ;
#79 = CARTESIAN_POINT ( 'NONE',  ( 1.396592535537252750E-15, -2.891205793294676847E-17, 0.3999999999999998002 ) ) ;
#80 = ORIENTED_EDGE ( 'NONE', *, *, #155, .F. ) ;
#81 = DIRECTION ( 'NONE',  ( 4.275831445896958607E-31, 1.000000000000000000, 1.224646799147353207E-16 ) ) ;
#82 = DIRECTION ( 'NONE',  ( 1.000000000000000000, 0.000000000000000000, -3.491481338843133750E-15 ) ) ;
#83 = DIRECTION ( 'NONE',  ( 0.000000000000000000, 1.000000000000000000, 0.000000000000000000 ) ) ;
#84 = EDGE_CURVE ( 'NONE', #7, #7, #119, .T. ) ;
#85 = CIRCLE ( 'NONE', #173, 0.2000000000000000944 ) ;
#86 = EDGE_LOOP ( 'NONE', ( #6 ) ) ;
#87 = DIRECTION ( 'NONE',  ( 4.275831445896959482E-31, 1.000000000000000000, 1.224646799147353207E-16 ) ) ;
#88 = FACE_BOUND ( 'NONE', #196, .T. ) ;
#89 = PERSON_AND_ORGANIZATION ( #18, #13 ) ;
#90 = CALENDAR_DATE ( 2023, 1, 2 ) ;
#91 = EDGE_CURVE ( 'NONE', #162, #162, #85, .T. ) ;
#92 = CALENDAR_DATE ( 2023, 1, 2 ) ;
#93 = EDGE_LOOP ( 'NONE', ( #147 ) ) ;
#94 = EDGE_LOOP ( 'NONE', ( #42 ) ) ;
#95 = CARTESIAN_POINT ( 'NONE',  ( -1.499999999999983347, 0.000000000000000000, 4.771498598878881836 ) ) ;
#96 = APPROVAL_PERSON_ORGANIZATION ( #207, #152, #34 ) ;
#97 =( NAMED_UNIT ( * ) PLANE_ANGLE_UNIT ( ) SI_UNIT ( $, .RADIAN. ) );
#98 = DIRECTION ( 'NONE',  ( 4.275831445896958607E-31, 1.000000000000000000, 1.224646799147353207E-16 ) ) ;
#99 = LOCAL_TIME ( 16, 37, 45.00000000000000000, #39 ) ;
#100 = DIRECTION ( 'NONE',  ( 0.000000000000000000, 1.000000000000000000, 0.000000000000000000 ) ) ;
#101 = DIRECTION ( 'NONE',  ( -3.491481338843133355E-15, 1.224646799147353207E-16, -1.000000000000000000 ) ) ;
#102 = CIRCLE ( 'NONE', #123, 0.2000000000000005107 ) ;
#103 = FACE_OUTER_BOUND ( 'NONE', #211, .T. ) ;
#104 = LOCAL_TIME ( 16, 37, 45.00000000000000000, #210 ) ;
#105 = ORIENTED_EDGE ( 'NONE', *, *, #155, .T. ) ;
#106 = APPROVAL_ROLE ( '' ) ;
#107 = CALENDAR_DATE ( 2023, 1, 2 ) ;
#108 = ADVANCED_FACE ( 'NONE', ( #103 ), #153, .T. ) ;
#109 = APPLICATION_PROTOCOL_DEFINITION ( 'international standard', 'config_control_design', 1994, #186 ) ;
#110 = PRODUCT_RELATED_PRODUCT_CATEGORY ( 'detail', '', ( #177 ) ) ;
#111 = SHAPE_DEFINITION_REPRESENTATION ( #14, #223 ) ;
#112 = SECURITY_CLASSIFICATION ( '', '', #208 ) ;
#113 = EDGE_LOOP ( 'NONE', ( #170 ) ) ;
#114 = EDGE_LOOP ( 'NONE', ( #41 ) ) ;
#115 = CARTESIAN_POINT ( 'NONE',  ( 1.316288464743861212E-13, 1.499999999999995337, 37.69999999999999574 ) ) ;
#116 = PRODUCT_DEFINITION_FORMATION_WITH_SPECIFIED_SOURCE ( 'ANY', '', #177, .NOT_KNOWN. ) ;
#117 = CIRCLE ( 'NONE', #67, 1.199999999999999956 ) ;
#118 = DIRECTION ( 'NONE',  ( 3.491481338843133355E-15, -0.000000000000000000, 1.000000000000000000 ) ) ;
#119 = CIRCLE ( 'NONE', #200, 1.499999999999999778 ) ;
#120 = CARTESIAN_POINT ( 'NONE',  ( 1.316288464743861212E-13, -4.616918432785521081E-15, 37.69999999999999574 ) ) ;
#121 = ORIENTED_EDGE ( 'NONE', *, *, #125, .T. ) ;
#122 = DIRECTION ( 'NONE',  ( 3.491481338843133355E-15, -0.000000000000000000, 1.000000000000000000 ) ) ;
#123 = AXIS2_PLACEMENT_3D ( 'NONE', #164, #9, #64 ) ;
#124 = DATE_AND_TIME ( #157, #72 ) ;
#125 = EDGE_CURVE ( 'NONE', #133, #133, #102, .T. ) ;
#126 = DATE_AND_TIME ( #107, #68 ) ;
#127 = APPROVAL_DATE_TIME ( #58, #152 ) ;
#128 = DATE_AND_TIME ( #92, #191 ) ;
#129 = EDGE_LOOP ( 'NONE', ( #121 ) ) ;
#130 = CC_DESIGN_APPROVAL ( #152, ( #112 ) ) ;
#131 = FACE_OUTER_BOUND ( 'NONE', #86, .T. ) ;
#132 = CARTESIAN_POINT ( 'NONE',  ( 1.396592535537249792E-15, 0.000000000000000000, 0.3999999999999989675 ) ) ;
#133 = VERTEX_POINT ( 'NONE', #149 ) ;
#134 = AXIS2_PLACEMENT_3D ( 'NONE', #79, #187, #171 ) ;
#135 = FACE_OUTER_BOUND ( 'NONE', #60, .T. ) ;
#136 = EDGE_CURVE ( 'NONE', #184, #184, #205, .T. ) ;
#137 = DIRECTION ( 'NONE',  ( -3.491481338843133355E-15, 1.224646799147353207E-16, -1.000000000000000000 ) ) ;
#138 = CARTESIAN_POINT ( 'NONE',  ( 1.396592535537252750E-15, -2.891205793294676847E-17, 0.3999999999999998002 ) ) ;
#139 = CONICAL_SURFACE ( 'NONE', #36, 1.499999999999999778, 0.7853981633974453924 ) ;
#140 = COORDINATED_UNIVERSAL_TIME_OFFSET ( 1, 0, .AHEAD. ) ;
#141 = CC_DESIGN_DATE_AND_TIME_ASSIGNMENT ( #124, #195, ( #112 ) ) ;
#142 = AXIS2_PLACEMENT_3D ( 'NONE', #219, #137, #87 ) ;
#143 = PERSON_AND_ORGANIZATION_ROLE ( 'creator' ) ;
#144 = APPROVAL_STATUS ( 'not_yet_approved' ) ;
#145 = ORIENTED_EDGE ( 'NONE', *, *, #203, .F. ) ;
#146 = DATE_AND_TIME ( #90, #104 ) ;
#147 = ORIENTED_EDGE ( 'NONE', *, *, #84, .T. ) ;
#148 = VERTEX_POINT ( 'NONE', #65 ) ;
#149 = CARTESIAN_POINT ( 'NONE',  ( 0.2000000000000019262, 0.000000000000000000, 0.3999999999999983014 ) ) ;
#150 = DIRECTION ( 'NONE',  ( -3.491481338843133355E-15, 1.224646799147353207E-16, -1.000000000000000000 ) ) ;
#151 = ORIENTED_EDGE ( 'NONE', *, *, #125, .F. ) ;
#152 = APPROVAL ( #2, 'UNSPECIFIED' ) ;
#153 = PLANE ( 'NONE',  #222 ) ;
#154 = FACE_OUTER_BOUND ( 'NONE', #93, .T. ) ;
#155 = EDGE_CURVE ( 'NONE', #148, #148, #62, .T. ) ;
#156 = PERSON_AND_ORGANIZATION_ROLE ( 'design_supplier' ) ;
#157 = CALENDAR_DATE ( 2023, 1, 2 ) ;
#158 = APPLICATION_CONTEXT ( 'configuration controlled 3d designs of mechanical parts and assemblies' ) ;
#159 = PERSON_AND_ORGANIZATION_ROLE ( 'classification_officer' ) ;
#160 = PERSON_AND_ORGANIZATION ( #18, #13 ) ;
#161 = FACE_OUTER_BOUND ( 'NONE', #21, .T. ) ;
#162 = VERTEX_POINT ( 'NONE', #27 ) ;
#163 = DIRECTION ( 'NONE',  ( 1.000000000000000000, 0.000000000000000000, -3.491481338843133355E-15 ) ) ;
#164 = CARTESIAN_POINT ( 'NONE',  ( 1.396592535537249792E-15, 0.000000000000000000, 0.3999999999999989675 ) ) ;
#165 = APPROVAL_PERSON_ORGANIZATION ( #1, #55, #16 ) ;
#166 = VERTEX_POINT ( 'NONE', #167 ) ;
#167 = CARTESIAN_POINT ( 'NONE',  ( 1.326762908760390423E-13, 1.199999999999995293, 38.00000000000000000 ) ) ;
#168 = CC_DESIGN_PERSON_AND_ORGANIZATION_ASSIGNMENT ( #194, #143, ( #174 ) ) ;
#169 = TOROIDAL_SURFACE ( 'NONE', #57, 8.200000000000001066, 8.000000000000000000 ) ;
#170 = ORIENTED_EDGE ( 'NONE', *, *, #136, .T. ) ;
#171 = DIRECTION ( 'NONE',  ( -4.275831445896958607E-31, -1.000000000000000000, -1.224646799147353207E-16 ) ) ;
#172 = DIRECTION ( 'NONE',  ( 0.000000000000000000, 1.000000000000000000, 0.000000000000000000 ) ) ;
#173 = AXIS2_PLACEMENT_3D ( 'NONE', #54, #122, #32 ) ;
#174 = PRODUCT_DEFINITION ( 'UNKNOWN', '', #116, #175 ) ;
#175 = DESIGN_CONTEXT ( 'detailed design', #186, 'design' ) ;
#176 = MANIFOLD_SOLID_BREP ( 'Corps-Déplacer/Copier1[1]', #202 ) ;
#177 = PRODUCT ( '977816', '977816', '', ( #74 ) ) ;
#178 = AXIS2_PLACEMENT_3D ( 'NONE', #132, #216, #10 ) ;
#179 = APPROVAL_STATUS ( 'not_yet_approved' ) ;
#180 = PERSON_AND_ORGANIZATION ( #18, #13 ) ;
#181 = AXIS2_PLACEMENT_3D ( 'NONE', #183, #23, #163 ) ;
#182 = EDGE_LOOP ( 'NONE', ( #145 ) ) ;
#183 = CARTESIAN_POINT ( 'NONE',  ( 0.000000000000000000, 0.000000000000000000, 0.000000000000000000 ) ) ;
#184 = VERTEX_POINT ( 'NONE', #95 ) ;
#185 = PLANE ( 'NONE',  #31 ) ;
#186 = APPLICATION_CONTEXT ( 'configuration controlled 3d designs of mechanical parts and assemblies' ) ;
#187 = DIRECTION ( 'NONE',  ( 3.491481338843133355E-15, -1.224646799147353207E-16, 1.000000000000000000 ) ) ;
#188 = ADVANCED_FACE ( 'NONE', ( #201, #135 ), #169, .F. ) ;
#189 = DIRECTION ( 'NONE',  ( -4.275831445896958607E-31, -1.000000000000000000, -1.224646799147353207E-16 ) ) ;
#190 = CC_DESIGN_PERSON_AND_ORGANIZATION_ASSIGNMENT ( #19, #159, ( #112 ) ) ;
#191 = LOCAL_TIME ( 16, 37, 45.00000000000000000, #212 ) ;
#192 = APPROVAL_PERSON_ORGANIZATION ( #56, #206, #106 ) ;
#193 = DIRECTION ( 'NONE',  ( 1.000000000000000000, 0.000000000000000000, 0.000000000000000000 ) ) ;
#194 = PERSON_AND_ORGANIZATION ( #18, #13 ) ;
#195 = DATE_TIME_ROLE ( 'classification_date' ) ;
#196 = EDGE_LOOP ( 'NONE', ( #48 ) ) ;
#197 = CYLINDRICAL_SURFACE ( 'NONE', #181, 0.2000000000000003164 ) ;
#198 = CARTESIAN_POINT ( 'NONE',  ( -3.206873584422719393E-31, 1.124819836996393206E-32, -9.184850993605149670E-17 ) ) ;
#199 = CARTESIAN_POINT ( 'NONE',  ( 1.326762908760390423E-13, -4.653657836759941941E-15, 38.00000000000000000 ) ) ;
#200 = AXIS2_PLACEMENT_3D ( 'NONE', #30, #101, #172 ) ;
#201 = FACE_OUTER_BOUND ( 'NONE', #114, .T. ) ;
#202 = CLOSED_SHELL ( 'NONE', ( #70, #46, #221, #188, #45 ) ) ;
#203 = EDGE_CURVE ( 'NONE', #166, #166, #117, .T. ) ;
#204 = PLANE ( 'NONE',  #40 ) ;
#205 = CIRCLE ( 'NONE', #3, 1.500000000000000000 ) ;
#206 = APPROVAL ( #144, 'UNSPECIFIED' ) ;
#207 = PERSON_AND_ORGANIZATION ( #18, #13 ) ;
#208 = SECURITY_CLASSIFICATION_LEVEL ( 'unclassified' ) ;
#209 = COORDINATED_UNIVERSAL_TIME_OFFSET ( 1, 0, .AHEAD. ) ;
#210 = COORDINATED_UNIVERSAL_TIME_OFFSET ( 1, 0, .AHEAD. ) ;
#211 = EDGE_LOOP ( 'NONE', ( #213 ) ) ;
#212 = COORDINATED_UNIVERSAL_TIME_OFFSET ( 1, 0, .AHEAD. ) ;
#213 = ORIENTED_EDGE ( 'NONE', *, *, #91, .F. ) ;
#214 = CARTESIAN_POINT ( 'NONE',  ( 1.396592535537253342E-15, 0.000000000000000000, 0.3999999999999999667 ) ) ;
#215 =( GEOMETRIC_REPRESENTATION_CONTEXT ( 3 ) GLOBAL_UNCERTAINTY_ASSIGNED_CONTEXT ( ( #26 ) ) GLOBAL_UNIT_ASSIGNED_CONTEXT ( ( #44, #97, #49 ) ) REPRESENTATION_CONTEXT ( 'NONE', 'WORKASPACE' ) );
#216 = DIRECTION ( 'NONE',  ( 3.491481338843133355E-15, -0.000000000000000000, 1.000000000000000000 ) ) ;
#217 = DIRECTION ( 'NONE',  ( -1.000000000000000000, 0.000000000000000000, 3.469446951953614189E-15 ) ) ;
#218 = CC_DESIGN_APPROVAL ( #55, ( #116 ) ) ;
#219 = CARTESIAN_POINT ( 'NONE',  ( 0.000000000000000000, 0.000000000000000000, 0.000000000000000000 ) ) ;
#220 = CYLINDRICAL_SURFACE ( 'NONE', #142, 1.500000000000000000 ) ;
#221 = ADVANCED_FACE ( 'NONE', ( #43 ), #185, .F. ) ;
#222 = AXIS2_PLACEMENT_3D ( 'NONE', #198, #47, #98 ) ;
#223 = ADVANCED_BREP_SHAPE_REPRESENTATION ( '977816', ( #176, #22, #15 ), #215 ) ;
ENDSEC;
END-ISO-10303-21;
