ISO-10303-21;
HEADER;
FILE_DESCRIPTION (( 'STEP AP203' ),
    '1' );
FILE_NAME ('977815.step',
    '2023-02-01T15:37:45',
    ( '' ),
    ( '' ),
    'SwSTEP 2.0',
    'SolidWorks 2019',
    '' );
FILE_SCHEMA (( 'CONFIG_CONTROL_DESIGN' ));
ENDSEC;

DATA;
#1 = ORIENTED_EDGE ( 'NONE', *, *, #177, .F. ) ;
#2 = CC_DESIGN_PERSON_AND_ORGANIZATION_ASSIGNMENT ( #167, #11, ( #184 ) ) ;
#3 = DIRECTION ( 'NONE',  ( -3.491481338843133355E-15, 1.224646799147353207E-16, -1.000000000000000000 ) ) ;
#4 = ORIENTED_EDGE ( 'NONE', *, *, #136, .T. ) ;
#5 = CIRCLE ( 'NONE', #133, 1.500000000000000000 ) ;
#6 = LOCAL_TIME ( 16, 37, 45.00000000000000000, #44 ) ;
#7 = DIRECTION ( 'NONE',  ( 1.000000000000000000, 0.000000000000000000, -3.491481338843133750E-15 ) ) ;
#8 = PERSON ( 'UNSPECIFIED', 'UNSPECIFIED', 'UNSPECIFIED', ('UNSPECIFIED'), ('UNSPECIFIED'), ('UNSPECIFIED') ) ;
#9 = AXIS2_PLACEMENT_3D ( 'NONE', #220, #103, #32 ) ;
#10 = LOCAL_TIME ( 16, 37, 45.00000000000000000, #58 ) ;
#11 = PERSON_AND_ORGANIZATION_ROLE ( 'design_owner' ) ;
#12 = DIRECTION ( 'NONE',  ( -3.491481338843133355E-15, 1.224646799147353207E-16, -1.000000000000000000 ) ) ;
#13 =( NAMED_UNIT ( * ) PLANE_ANGLE_UNIT ( ) SI_UNIT ( $, .RADIAN. ) );
#14 = AXIS2_PLACEMENT_3D ( 'NONE', #29, #171, #95 ) ;
#15 = DIRECTION ( 'NONE',  ( 0.000000000000000000, 1.000000000000000000, 0.000000000000000000 ) ) ;
#16 = DATE_AND_TIME ( #35, #10 ) ;
#17 = APPROVAL_ROLE ( '' ) ;
#18 = AXIS2_PLACEMENT_3D ( 'NONE', #71, #221, #139 ) ;
#19 = APPROVAL_DATE_TIME ( #16, #92 ) ;
#20 = PLANE ( 'NONE',  #189 ) ;
#21 = ADVANCED_FACE ( 'NONE', ( #178 ), #20, .T. ) ;
#22 = FACE_OUTER_BOUND ( 'NONE', #127, .T. ) ;
#23 = FACE_OUTER_BOUND ( 'NONE', #129, .T. ) ;
#24 = DIRECTION ( 'NONE',  ( -3.491481338843133355E-15, 1.224646799147353207E-16, -1.000000000000000000 ) ) ;
#25 = MECHANICAL_CONTEXT ( 'NONE', #188, 'mechanical' ) ;
#26 = AXIS2_PLACEMENT_3D ( 'NONE', #93, #90, #7 ) ;
#27 = UNCERTAINTY_MEASURE_WITH_UNIT (LENGTH_MEASURE( 1.000000000000000082E-05 ), #152, 'distance_accuracy_value', 'NONE');
#28 = CC_DESIGN_PERSON_AND_ORGANIZATION_ASSIGNMENT ( #105, #176, ( #33 ) ) ;
#29 = CARTESIAN_POINT ( 'NONE',  ( 0.000000000000000000, 0.000000000000000000, 0.000000000000000000 ) ) ;
#30 = VERTEX_POINT ( 'NONE', #119 ) ;
#31 = DIRECTION ( 'NONE',  ( 3.491481338843133355E-15, -1.224646799147353207E-16, 1.000000000000000000 ) ) ;
#32 = DIRECTION ( 'NONE',  ( 1.000000000000000000, 0.000000000000000000, -3.614007241618327866E-15 ) ) ;
#33 = PRODUCT_DEFINITION_FORMATION_WITH_SPECIFIED_SOURCE ( 'ANY', '', #184, .NOT_KNOWN. ) ;
#34 = APPROVAL_STATUS ( 'not_yet_approved' ) ;
#35 = CALENDAR_DATE ( 2023, 1, 2 ) ;
#36 = ADVANCED_FACE ( 'NONE', ( #23 ), #164, .T. ) ;
#37 = EDGE_LOOP ( 'NONE', ( #110 ) ) ;
#38 = CC_DESIGN_APPROVAL ( #70, ( #33 ) ) ;
#39 = AXIS2_PLACEMENT_3D ( 'NONE', #73, #31, #172 ) ;
#40 = CIRCLE ( 'NONE', #168, 1.499999999999999778 ) ;
#41 = PLANE ( 'NONE',  #60 ) ;
#42 = EDGE_LOOP ( 'NONE', ( #89 ) ) ;
#43 = DIRECTION ( 'NONE',  ( -3.491481338843133355E-15, 1.224646799147353207E-16, -1.000000000000000000 ) ) ;
#44 = COORDINATED_UNIVERSAL_TIME_OFFSET ( 1, 0, .AHEAD. ) ;
#45 = EDGE_CURVE ( 'NONE', #137, #137, #107, .T. ) ;
#46 = CLOSED_SHELL ( 'NONE', ( #21, #118, #36 ) ) ;
#47 = LOCAL_TIME ( 16, 37, 45.00000000000000000, #217 ) ;
#48 = CC_DESIGN_DATE_AND_TIME_ASSIGNMENT ( #223, #191, ( #214 ) ) ;
#49 = APPLICATION_PROTOCOL_DEFINITION ( 'international standard', 'config_control_design', 1994, #188 ) ;
#50 = CIRCLE ( 'NONE', #9, 0.1500000000000008271 ) ;
#51 = CARTESIAN_POINT ( 'NONE',  ( 1.316288464743861212E-13, 1.499999999999995337, 37.69999999999999574 ) ) ;
#52 = CARTESIAN_POINT ( 'NONE',  ( -3.206873584422719393E-31, 1.124819836996393206E-32, -9.184850993605149670E-17 ) ) ;
#53 = DIRECTION ( 'NONE',  ( 0.000000000000000000, 1.000000000000000000, 0.000000000000000000 ) ) ;
#54 = PRODUCT_RELATED_PRODUCT_CATEGORY ( 'detail', '', ( #184 ) ) ;
#55 = DIRECTION ( 'NONE',  ( -3.491481338843133355E-15, 1.224646799147353207E-16, -1.000000000000000000 ) ) ;
#56 = CALENDAR_DATE ( 2023, 1, 2 ) ;
#57 = ADVANCED_FACE ( 'NONE', ( #122, #205 ), #148, .F. ) ;
#58 = COORDINATED_UNIVERSAL_TIME_OFFSET ( 1, 0, .AHEAD. ) ;
#59 = ORIENTED_EDGE ( 'NONE', *, *, #83, .F. ) ;
#60 = AXIS2_PLACEMENT_3D ( 'NONE', #213, #3, #128 ) ;
#61 = CARTESIAN_POINT ( 'NONE',  ( 1.326762908760390423E-13, -4.653657836759941941E-15, 38.00000000000000000 ) ) ;
#62 = ORIENTED_EDGE ( 'NONE', *, *, #94, .F. ) ;
#63 = CARTESIAN_POINT ( 'NONE',  ( 1.047444401652936851E-15, 0.000000000000000000, 0.2999999999999991007 ) ) ;
#64 = DATE_AND_TIME ( #66, #47 ) ;
#65 = EDGE_CURVE ( 'NONE', #121, #121, #50, .T. ) ;
#66 = CALENDAR_DATE ( 2023, 1, 2 ) ;
#67 = CARTESIAN_POINT ( 'NONE',  ( 0.1500000000000018818, 0.000000000000000000, 0.2999999999999985456 ) ) ;
#68 = AXIS2_PLACEMENT_3D ( 'NONE', #63, #195, #130 ) ;
#69 = DATE_TIME_ROLE ( 'creation_date' ) ;
#70 = APPROVAL ( #222, 'UNSPECIFIED' ) ;
#71 = CARTESIAN_POINT ( 'NONE',  ( -1.282749433769087757E-30, 0.000000000000000000, -3.673940397442059868E-16 ) ) ;
#72 = VERTEX_POINT ( 'NONE', #51 ) ;
#73 = CARTESIAN_POINT ( 'NONE',  ( 1.047444401652939218E-15, -3.252606517456511453E-17, 0.2999999999999998224 ) ) ;
#74 = PERSON_AND_ORGANIZATION_ROLE ( 'classification_officer' ) ;
#75 = APPROVAL_ROLE ( '' ) ;
#76 = ORIENTED_EDGE ( 'NONE', *, *, #65, .T. ) ;
#77 = FACE_OUTER_BOUND ( 'NONE', #210, .T. ) ;
#78 = EDGE_LOOP ( 'NONE', ( #4 ) ) ;
#79 = CONICAL_SURFACE ( 'NONE', #134, 1.499999999999999778, 0.7853981633974453924 ) ;
#80 = DIRECTION ( 'NONE',  ( 0.000000000000000000, 1.000000000000000000, 0.000000000000000000 ) ) ;
#81 = CC_DESIGN_APPROVAL ( #92, ( #214 ) ) ;
#82 = APPROVAL_ROLE ( '' ) ;
#83 = EDGE_CURVE ( 'NONE', #72, #72, #40, .T. ) ;
#84 = AXIS2_PLACEMENT_3D ( 'NONE', #61, #126, #80 ) ;
#85 = CARTESIAN_POINT ( 'NONE',  ( 1.657472573027773131E-14, 0.000000000000000000, 4.747190124112075971 ) ) ;
#86 = FACE_OUTER_BOUND ( 'NONE', #194, .T. ) ;
#87 = ADVANCED_FACE ( 'NONE', ( #86 ), #185, .F. ) ;
#88 = COORDINATED_UNIVERSAL_TIME_OFFSET ( 1, 0, .AHEAD. ) ;
#89 = ORIENTED_EDGE ( 'NONE', *, *, #177, .T. ) ;
#90 = DIRECTION ( 'NONE',  ( 3.491481338843133355E-15, -0.000000000000000000, 1.000000000000000000 ) ) ;
#91 = DIRECTION ( 'NONE',  ( 3.491481338843133355E-15, -1.224646799147353207E-16, 1.000000000000000000 ) ) ;
#92 = APPROVAL ( #34, 'UNSPECIFIED' ) ;
#93 = CARTESIAN_POINT ( 'NONE',  ( 0.000000000000000000, 0.000000000000000000, 0.000000000000000000 ) ) ;
#94 = EDGE_CURVE ( 'NONE', #100, #100, #5, .T. ) ;
#95 = DIRECTION ( 'NONE',  ( 1.000000000000000000, 0.000000000000000000, 0.000000000000000000 ) ) ;
#96 = MANIFOLD_SOLID_BREP ( 'Corps-Déplacer/Copier1[1]', #117 ) ;
#97 = MANIFOLD_SOLID_BREP ( 'Corps-Déplacer/Copier1[2]', #46 ) ;
#98 =( NAMED_UNIT ( * ) SI_UNIT ( $, .STERADIAN. ) SOLID_ANGLE_UNIT ( ) );
#99 = DIRECTION ( 'NONE',  ( 4.275831445896958607E-31, 1.000000000000000000, 1.224646799147353207E-16 ) ) ;
#100 = VERTEX_POINT ( 'NONE', #204 ) ;
#101 = APPROVAL_PERSON_ORGANIZATION ( #141, #92, #75 ) ;
#102 = CC_DESIGN_APPROVAL ( #170, ( #187 ) ) ;
#103 = DIRECTION ( 'NONE',  ( 3.491481338843133355E-15, -0.000000000000000000, 1.000000000000000000 ) ) ;
#104 = EDGE_LOOP ( 'NONE', ( #182 ) ) ;
#105 = PERSON_AND_ORGANIZATION ( #8, #200 ) ;
#106 = SHAPE_DEFINITION_REPRESENTATION ( #114, #163 ) ;
#107 = CIRCLE ( 'NONE', #18, 0.1499999999999999667 ) ;
#108 = EDGE_LOOP ( 'NONE', ( #146 ) ) ;
#109 = FACE_OUTER_BOUND ( 'NONE', #108, .T. ) ;
#110 = ORIENTED_EDGE ( 'NONE', *, *, #65, .F. ) ;
#111 = CYLINDRICAL_SURFACE ( 'NONE', #26, 0.1500000000000003830 ) ;
#112 = CC_DESIGN_SECURITY_CLASSIFICATION ( #214, ( #33 ) ) ;
#113 = CALENDAR_DATE ( 2023, 1, 2 ) ;
#114 = PRODUCT_DEFINITION_SHAPE ( 'NONE', 'NONE',  #187 ) ;
#115 =( GEOMETRIC_REPRESENTATION_CONTEXT ( 3 ) GLOBAL_UNCERTAINTY_ASSIGNED_CONTEXT ( ( #27 ) ) GLOBAL_UNIT_ASSIGNED_CONTEXT ( ( #152, #13, #98 ) ) REPRESENTATION_CONTEXT ( 'NONE', 'WORKASPACE' ) );
#116 = APPROVAL_STATUS ( 'not_yet_approved' ) ;
#117 = CLOSED_SHELL ( 'NONE', ( #203, #218, #207, #57, #87 ) ) ;
#118 = ADVANCED_FACE ( 'NONE', ( #165, #181 ), #111, .T. ) ;
#119 = CARTESIAN_POINT ( 'NONE',  ( 0.1500000000000018818, 0.000000000000000000, 0.2999999999999985456 ) ) ;
#120 = DIRECTION ( 'NONE',  ( 1.000000000000000000, 0.000000000000000000, -3.491481338843133750E-15 ) ) ;
#121 = VERTEX_POINT ( 'NONE', #67 ) ;
#122 = FACE_OUTER_BOUND ( 'NONE', #196, .T. ) ;
#123 = EDGE_LOOP ( 'NONE', ( #169 ) ) ;
#124 = CALENDAR_DATE ( 2023, 1, 2 ) ;
#125 = COORDINATED_UNIVERSAL_TIME_OFFSET ( 1, 0, .AHEAD. ) ;
#126 = DIRECTION ( 'NONE',  ( -3.491481338843133355E-15, 1.224646799147353207E-16, -1.000000000000000000 ) ) ;
#127 = EDGE_LOOP ( 'NONE', ( #1 ) ) ;
#128 = DIRECTION ( 'NONE',  ( 4.275831445896958607E-31, 1.000000000000000000, 1.224646799147353207E-16 ) ) ;
#129 = EDGE_LOOP ( 'NONE', ( #161 ) ) ;
#130 = DIRECTION ( 'NONE',  ( 1.000000000000000000, 0.000000000000000000, -3.614007241618327866E-15 ) ) ;
#131 = PERSON_AND_ORGANIZATION ( #8, #200 ) ;
#132 = CC_DESIGN_DATE_AND_TIME_ASSIGNMENT ( #183, #69, ( #187 ) ) ;
#133 = AXIS2_PLACEMENT_3D ( 'NONE', #85, #140, #206 ) ;
#134 = AXIS2_PLACEMENT_3D ( 'NONE', #144, #43, #53 ) ;
#135 = PERSON_AND_ORGANIZATION_ROLE ( 'creator' ) ;
#136 = EDGE_CURVE ( 'NONE', #30, #30, #174, .T. ) ;
#137 = VERTEX_POINT ( 'NONE', #201 ) ;
#138 = PERSON_AND_ORGANIZATION ( #8, #200 ) ;
#139 = DIRECTION ( 'NONE',  ( 1.000000000000000000, 0.000000000000000000, -3.491481338843133355E-15 ) ) ;
#140 = DIRECTION ( 'NONE',  ( 3.491481338843133355E-15, -0.000000000000000000, 1.000000000000000000 ) ) ;
#141 = PERSON_AND_ORGANIZATION ( #8, #200 ) ;
#142 = DATE_AND_TIME ( #56, #159 ) ;
#143 = DIRECTION ( 'NONE',  ( -4.275831445896958607E-31, -1.000000000000000000, -1.224646799147353207E-16 ) ) ;
#144 = CARTESIAN_POINT ( 'NONE',  ( 1.316288464743861212E-13, -4.616918432785521081E-15, 37.69999999999999574 ) ) ;
#145 = APPROVAL_PERSON_ORGANIZATION ( #151, #170, #82 ) ;
#146 = ORIENTED_EDGE ( 'NONE', *, *, #94, .T. ) ;
#147 = FACE_OUTER_BOUND ( 'NONE', #104, .T. ) ;
#148 = TOROIDAL_SURFACE ( 'NONE', #199, 8.150000000000000355, 8.000000000000000000 ) ;
#149 = APPLICATION_PROTOCOL_DEFINITION ( 'international standard', 'config_control_design', 1994, #216 ) ;
#150 = CC_DESIGN_PERSON_AND_ORGANIZATION_ASSIGNMENT ( #131, #135, ( #187 ) ) ;
#151 = PERSON_AND_ORGANIZATION ( #8, #200 ) ;
#152 =( LENGTH_UNIT ( ) NAMED_UNIT ( * ) SI_UNIT ( .MILLI., .METRE. ) );
#153 = LOCAL_TIME ( 16, 37, 45.00000000000000000, #88 ) ;
#154 = CARTESIAN_POINT ( 'NONE',  ( 1.047444401652940007E-15, 0.000000000000000000, 0.3000000000000000444 ) ) ;
#155 = CARTESIAN_POINT ( 'NONE',  ( 1.326762908760390423E-13, 1.199999999999995293, 38.00000000000000000 ) ) ;
#156 = DIRECTION ( 'NONE',  ( 3.491481338843133355E-15, -0.000000000000000000, 1.000000000000000000 ) ) ;
#157 = PERSON_AND_ORGANIZATION ( #8, #200 ) ;
#158 = DESIGN_CONTEXT ( 'detailed design', #216, 'design' ) ;
#159 = LOCAL_TIME ( 16, 37, 45.00000000000000000, #125 ) ;
#160 = PERSON_AND_ORGANIZATION_ROLE ( 'creator' ) ;
#161 = ORIENTED_EDGE ( 'NONE', *, *, #45, .F. ) ;
#162 = FACE_BOUND ( 'NONE', #42, .T. ) ;
#163 = ADVANCED_BREP_SHAPE_REPRESENTATION ( '977815', ( #96, #97, #14 ), #115 ) ;
#164 = PLANE ( 'NONE',  #202 ) ;
#165 = FACE_OUTER_BOUND ( 'NONE', #123, .T. ) ;
#166 = CIRCLE ( 'NONE', #84, 1.199999999999999956 ) ;
#167 = PERSON_AND_ORGANIZATION ( #8, #200 ) ;
#168 = AXIS2_PLACEMENT_3D ( 'NONE', #175, #55, #15 ) ;
#169 = ORIENTED_EDGE ( 'NONE', *, *, #45, .T. ) ;
#170 = APPROVAL ( #116, 'UNSPECIFIED' ) ;
#171 = DIRECTION ( 'NONE',  ( 0.000000000000000000, 0.000000000000000000, 1.000000000000000000 ) ) ;
#172 = DIRECTION ( 'NONE',  ( -4.275831445896958607E-31, -1.000000000000000000, -1.224646799147353207E-16 ) ) ;
#173 = CC_DESIGN_PERSON_AND_ORGANIZATION_ASSIGNMENT ( #209, #74, ( #214 ) ) ;
#174 = CIRCLE ( 'NONE', #68, 0.1500000000000008271 ) ;
#175 = CARTESIAN_POINT ( 'NONE',  ( 1.316288464743861212E-13, -4.616918432785521081E-15, 37.69999999999999574 ) ) ;
#176 = PERSON_AND_ORGANIZATION_ROLE ( 'design_supplier' ) ;
#177 = EDGE_CURVE ( 'NONE', #186, #186, #166, .T. ) ;
#178 = FACE_OUTER_BOUND ( 'NONE', #212, .T. ) ;
#179 = DIRECTION ( 'NONE',  ( 4.275831445896959482E-31, 1.000000000000000000, 1.224646799147353207E-16 ) ) ;
#180 = CARTESIAN_POINT ( 'NONE',  ( 1.047444401652939218E-15, -3.252606517456511453E-17, 0.2999999999999998224 ) ) ;
#181 = FACE_OUTER_BOUND ( 'NONE', #37, .T. ) ;
#182 = ORIENTED_EDGE ( 'NONE', *, *, #83, .T. ) ;
#183 = DATE_AND_TIME ( #113, #6 ) ;
#184 = PRODUCT ( '977815', '977815', '', ( #25 ) ) ;
#185 = PLANE ( 'NONE',  #39 ) ;
#186 = VERTEX_POINT ( 'NONE', #155 ) ;
#187 = PRODUCT_DEFINITION ( 'UNKNOWN', '', #33, #158 ) ;
#188 = APPLICATION_CONTEXT ( 'configuration controlled 3d designs of mechanical parts and assemblies' ) ;
#189 = AXIS2_PLACEMENT_3D ( 'NONE', #180, #91, #143 ) ;
#190 = SECURITY_CLASSIFICATION_LEVEL ( 'unclassified' ) ;
#191 = DATE_TIME_ROLE ( 'classification_date' ) ;
#192 = ORIENTED_EDGE ( 'NONE', *, *, #136, .F. ) ;
#193 = CYLINDRICAL_SURFACE ( 'NONE', #219, 1.500000000000000000 ) ;
#194 = EDGE_LOOP ( 'NONE', ( #192 ) ) ;
#195 = DIRECTION ( 'NONE',  ( 3.491481338843133355E-15, -0.000000000000000000, 1.000000000000000000 ) ) ;
#196 = EDGE_LOOP ( 'NONE', ( #62 ) ) ;
#197 = CC_DESIGN_PERSON_AND_ORGANIZATION_ASSIGNMENT ( #157, #160, ( #33 ) ) ;
#198 = APPROVAL_PERSON_ORGANIZATION ( #138, #70, #17 ) ;
#199 = AXIS2_PLACEMENT_3D ( 'NONE', #154, #156, #120 ) ;
#200 = ORGANIZATION ( 'UNSPECIFIED', 'UNSPECIFIED', '' ) ;
#201 = CARTESIAN_POINT ( 'NONE',  ( 0.1499999999999999667, 0.000000000000000000, -8.911162405706758422E-16 ) ) ;
#202 = AXIS2_PLACEMENT_3D ( 'NONE', #52, #12, #99 ) ;
#203 = ADVANCED_FACE ( 'NONE', ( #147, #109 ), #193, .T. ) ;
#204 = CARTESIAN_POINT ( 'NONE',  ( -1.499999999999983569, 0.000000000000000000, 4.747190124112081300 ) ) ;
#205 = FACE_OUTER_BOUND ( 'NONE', #78, .T. ) ;
#206 = DIRECTION ( 'NONE',  ( -1.000000000000000000, 0.000000000000000000, 3.469446951953614189E-15 ) ) ;
#207 = ADVANCED_FACE ( 'NONE', ( #22 ), #41, .F. ) ;
#208 = APPROVAL_DATE_TIME ( #142, #70 ) ;
#209 = PERSON_AND_ORGANIZATION ( #8, #200 ) ;
#210 = EDGE_LOOP ( 'NONE', ( #59 ) ) ;
#211 = CARTESIAN_POINT ( 'NONE',  ( 0.000000000000000000, 0.000000000000000000, 0.000000000000000000 ) ) ;
#212 = EDGE_LOOP ( 'NONE', ( #76 ) ) ;
#213 = CARTESIAN_POINT ( 'NONE',  ( 1.326762908760390423E-13, 8.998558695971077224E-33, 38.00000000000000000 ) ) ;
#214 = SECURITY_CLASSIFICATION ( '', '', #190 ) ;
#215 = APPROVAL_DATE_TIME ( #64, #170 ) ;
#216 = APPLICATION_CONTEXT ( 'configuration controlled 3d designs of mechanical parts and assemblies' ) ;
#217 = COORDINATED_UNIVERSAL_TIME_OFFSET ( 1, 0, .AHEAD. ) ;
#218 = ADVANCED_FACE ( 'NONE', ( #162, #77 ), #79, .T. ) ;
#219 = AXIS2_PLACEMENT_3D ( 'NONE', #211, #24, #179 ) ;
#220 = CARTESIAN_POINT ( 'NONE',  ( 1.047444401652936851E-15, 0.000000000000000000, 0.2999999999999991007 ) ) ;
#221 = DIRECTION ( 'NONE',  ( 3.491481338843133355E-15, -0.000000000000000000, 1.000000000000000000 ) ) ;
#222 = APPROVAL_STATUS ( 'not_yet_approved' ) ;
#223 = DATE_AND_TIME ( #124, #153 ) ;
ENDSEC;
END-ISO-10303-21;
