ISO-10303-21;
HEADER;
FILE_DESCRIPTION (( 'STEP AP203' ),
    '1' );
FILE_NAME ('977803.step',
    '2021-11-15T08:49:03',
    ( '' ),
    ( '' ),
    'SwSTEP 2.0',
    'SolidWorks 2019',
    '' );
FILE_SCHEMA (( 'CONFIG_CONTROL_DESIGN' ));
ENDSEC;

DATA;
#1 = CARTESIAN_POINT ( 'NONE',  ( 2.513866563967056016E-13, 4.499999999999992006, 72.00000000000000000 ) ) ;
#2 = FACE_BOUND ( 'NONE', #48, .T. ) ;
#3 = PERSON_AND_ORGANIZATION ( #198, #160 ) ;
#4 = DATE_TIME_ROLE ( 'classification_date' ) ;
#5 = DIRECTION ( 'NONE',  ( 4.275831445896958607E-31, 1.000000000000000000, 1.224646799147353207E-16 ) ) ;
#6 = PERSON_AND_ORGANIZATION_ROLE ( 'creator' ) ;
#7 = PLANE ( 'NONE',  #86 ) ;
#8 = UNCERTAINTY_MEASURE_WITH_UNIT (LENGTH_MEASURE( 1.000000000000000082E-05 ), #203, 'distance_accuracy_value', 'NONE');
#9 = CYLINDRICAL_SURFACE ( 'NONE', #19, 5.000000000000000000 ) ;
#10 = ADVANCED_FACE ( 'NONE', ( #144 ), #7, .T. ) ;
#11 = EDGE_LOOP ( 'NONE', ( #191 ) ) ;
#12 = CC_DESIGN_APPROVAL ( #70, ( #104 ) ) ;
#13 = PLANE ( 'NONE',  #105 ) ;
#14 = AXIS2_PLACEMENT_3D ( 'NONE', #47, #200, #77 ) ;
#15 = FACE_OUTER_BOUND ( 'NONE', #11, .T. ) ;
#16 = EDGE_CURVE ( 'NONE', #154, #154, #152, .T. ) ;
#17 = CARTESIAN_POINT ( 'NONE',  ( 2.496409157272839907E-13, -8.756224613903572559E-15, 71.49999999999998579 ) ) ;
#18 =( NAMED_UNIT ( * ) PLANE_ANGLE_UNIT ( ) SI_UNIT ( $, .RADIAN. ) );
#19 = AXIS2_PLACEMENT_3D ( 'NONE', #197, #134, #5 ) ;
#20 = DATE_AND_TIME ( #130, #49 ) ;
#21 = PRODUCT_RELATED_PRODUCT_CATEGORY ( 'detail', '', ( #38 ) ) ;
#22 = COORDINATED_UNIVERSAL_TIME_OFFSET ( 1, 0, .AHEAD. ) ;
#23 = ORIENTED_EDGE ( 'NONE', *, *, #57, .T. ) ;
#24 = APPROVAL_PERSON_ORGANIZATION ( #183, #127, #128 ) ;
#25 = DIRECTION ( 'NONE',  ( 0.0000000000000000000, 1.000000000000000000, 0.0000000000000000000 ) ) ;
#26 = CARTESIAN_POINT ( 'NONE',  ( 3.491481338843133355E-14, -1.224646799147353256E-15, 10.00000000000000000 ) ) ;
#27 = CLOSED_SHELL ( 'NONE', ( #10, #43, #91 ) ) ;
#28 = VERTEX_POINT ( 'NONE', #1 ) ;
#29 = APPROVAL_DATE_TIME ( #98, #70 ) ;
#30 = CONICAL_SURFACE ( 'NONE', #87, 4.999999999999999112, 0.7853981633974327359 ) ;
#31 = DIRECTION ( 'NONE',  ( -3.491481338843133355E-15, 1.224646799147353207E-16, -1.000000000000000000 ) ) ;
#32 = PLANE ( 'NONE',  #179 ) ;
#33 = DIRECTION ( 'NONE',  ( 4.275831445896958607E-31, 1.000000000000000000, 1.224646799147353207E-16 ) ) ;
#34 = CARTESIAN_POINT ( 'NONE',  ( 3.491481338843133355E-14, 4.999999999999999112, 10.00000000000000000 ) ) ;
#35 = DIRECTION ( 'NONE',  ( 4.275831445896958607E-31, 1.000000000000000000, 1.224646799147353207E-16 ) ) ;
#36 = DIRECTION ( 'NONE',  ( -3.491481338843133355E-15, 1.224646799147353207E-16, -1.000000000000000000 ) ) ;
#37 = DIRECTION ( 'NONE',  ( -4.275831445896958607E-31, -1.000000000000000000, -1.224646799147353207E-16 ) ) ;
#38 = PRODUCT ( '977803', '977803', '', ( #170 ) ) ;
#39 = APPROVAL_DATE_TIME ( #102, #127 ) ;
#40 = CC_DESIGN_SECURITY_CLASSIFICATION ( #92, ( #174 ) ) ;
#41 = CLOSED_SHELL ( 'NONE', ( #176, #117, #109, #190 ) ) ;
#42 = APPROVAL_ROLE ( '' ) ;
#43 = ADVANCED_FACE ( 'NONE', ( #62, #89 ), #9, .T. ) ;
#44 = MANIFOLD_SOLID_BREP ( 'Corps-Déplacer/Copier1[2]', #27 ) ;
#45 = EDGE_LOOP ( 'NONE', ( #149 ) ) ;
#46 = EDGE_LOOP ( 'NONE', ( #164 ) ) ;
#47 = CARTESIAN_POINT ( 'NONE',  ( 3.491481338843133355E-14, -1.224646799147353256E-15, 10.00000000000000000 ) ) ;
#48 = EDGE_LOOP ( 'NONE', ( #59 ) ) ;
#49 = LOCAL_TIME ( 9, 49, 3.000000000000000000, #22 ) ;
#50 = APPLICATION_CONTEXT ( 'configuration controlled 3d designs of mechanical parts and assemblies' ) ;
#51 = APPLICATION_PROTOCOL_DEFINITION ( 'international standard', 'config_control_design', 1994, #195 ) ;
#52 = CARTESIAN_POINT ( 'NONE',  ( 2.513866563967056016E-13, 3.374459510989167028E-32, 72.00000000000000000 ) ) ;
#53 = CARTESIAN_POINT ( 'NONE',  ( 2.513866563967056016E-13, -8.817456953860941711E-15, 72.00000000000000000 ) ) ;
#54 = APPLICATION_PROTOCOL_DEFINITION ( 'international standard', 'config_control_design', 1994, #50 ) ;
#55 = CARTESIAN_POINT ( 'NONE',  ( 3.491481338843133355E-14, 3.749399456654642925E-32, 10.00000000000000000 ) ) ;
#56 = DATE_AND_TIME ( #69, #165 ) ;
#57 = EDGE_CURVE ( 'NONE', #139, #139, #67, .T. ) ;
#58 = AXIS2_PLACEMENT_3D ( 'NONE', #123, #138, #167 ) ;
#59 = ORIENTED_EDGE ( 'NONE', *, *, #85, .T. ) ;
#60 = DESIGN_CONTEXT ( 'detailed design', #50, 'design' ) ;
#61 = AXIS2_PLACEMENT_3D ( 'NONE', #111, #36, #66 ) ;
#62 = FACE_OUTER_BOUND ( 'NONE', #76, .T. ) ;
#63 = CIRCLE ( 'NONE', #61, 4.999999999999999112 ) ;
#64 = VERTEX_POINT ( 'NONE', #108 ) ;
#65 =( NAMED_UNIT ( * ) SI_UNIT ( $, .STERADIAN. ) SOLID_ANGLE_UNIT ( ) );
#66 = DIRECTION ( 'NONE',  ( 0.0000000000000000000, 1.000000000000000000, 0.0000000000000000000 ) ) ;
#67 = CIRCLE ( 'NONE', #14, 5.000000000000000000 ) ;
#68 = CALENDAR_DATE ( 2021, 15, 11 ) ;
#69 = CALENDAR_DATE ( 2021, 15, 11 ) ;
#70 = APPROVAL ( #80, 'UNSPECIFIED' ) ;
#71 = PERSON_AND_ORGANIZATION_ROLE ( 'classification_officer' ) ;
#72 = SHAPE_DEFINITION_REPRESENTATION ( #96, #151 ) ;
#73 = CARTESIAN_POINT ( 'NONE',  ( -1.068957861474239564E-30, 3.749399456654644020E-32, -3.061616997868383141E-16 ) ) ;
#74 = DIRECTION ( 'NONE',  ( -3.491481338843133355E-15, 1.224646799147353207E-16, -1.000000000000000000 ) ) ;
#75 = APPROVAL_PERSON_ORGANIZATION ( #95, #70, #168 ) ;
#76 = EDGE_LOOP ( 'NONE', ( #163 ) ) ;
#77 = DIRECTION ( 'NONE',  ( 0.0000000000000000000, 1.000000000000000000, 0.0000000000000000000 ) ) ;
#78 = FACE_OUTER_BOUND ( 'NONE', #46, .T. ) ;
#79 = AXIS2_PLACEMENT_3D ( 'NONE', #26, #74, #25 ) ;
#80 = APPROVAL_STATUS ( 'not_yet_approved' ) ;
#81 = CARTESIAN_POINT ( 'NONE',  ( -2.137915722948479128E-30, 7.498798913309288039E-32, -6.123233995736766282E-16 ) ) ;
#82 = AXIS2_PLACEMENT_3D ( 'NONE', #97, #31, #33 ) ;
#83 = COORDINATED_UNIVERSAL_TIME_OFFSET ( 1, 0, .AHEAD. ) ;
#84 = CALENDAR_DATE ( 2021, 15, 11 ) ;
#85 = EDGE_CURVE ( 'NONE', #28, #28, #145, .T. ) ;
#86 = AXIS2_PLACEMENT_3D ( 'NONE', #73, #132, #196 ) ;
#87 = AXIS2_PLACEMENT_3D ( 'NONE', #17, #159, #110 ) ;
#88 = AXIS2_PLACEMENT_3D ( 'NONE', #81, #172, #35 ) ;
#89 = FACE_OUTER_BOUND ( 'NONE', #199, .T. ) ;
#90 = ORIENTED_EDGE ( 'NONE', *, *, #181, .F. ) ;
#91 = ADVANCED_FACE ( 'NONE', ( #15 ), #186, .T. ) ;
#92 = SECURITY_CLASSIFICATION ( '', '', #162 ) ;
#93 = DIRECTION ( 'NONE',  ( 4.275831445896958607E-31, 1.000000000000000000, 1.224646799147353207E-16 ) ) ;
#94 = PERSON_AND_ORGANIZATION_ROLE ( 'creator' ) ;
#95 = PERSON_AND_ORGANIZATION ( #198, #160 ) ;
#96 = PRODUCT_DEFINITION_SHAPE ( 'NONE', 'NONE',  #104 ) ;
#97 = CARTESIAN_POINT ( 'NONE',  ( 0.0000000000000000000, 0.0000000000000000000, 0.0000000000000000000 ) ) ;
#98 = DATE_AND_TIME ( #187, #185 ) ;
#99 = PERSON_AND_ORGANIZATION ( #198, #160 ) ;
#100 = PERSON_AND_ORGANIZATION ( #198, #160 ) ;
#101 = CC_DESIGN_PERSON_AND_ORGANIZATION_ASSIGNMENT ( #194, #6, ( #174 ) ) ;
#102 = DATE_AND_TIME ( #84, #124 ) ;
#103 = PERSON_AND_ORGANIZATION ( #198, #160 ) ;
#104 = PRODUCT_DEFINITION ( 'UNKNOWN', '', #174, #60 ) ;
#105 = AXIS2_PLACEMENT_3D ( 'NONE', #55, #107, #141 ) ;
#106 = PERSON_AND_ORGANIZATION_ROLE ( 'design_owner' ) ;
#107 = DIRECTION ( 'NONE',  ( 3.491481338843133355E-15, -1.224646799147353207E-16, 1.000000000000000000 ) ) ;
#108 = CARTESIAN_POINT ( 'NONE',  ( 2.496409157272839907E-13, 4.999999999999990230, 71.49999999999998579 ) ) ;
#109 = ADVANCED_FACE ( 'NONE', ( #2, #184 ), #30, .T. ) ;
#110 = DIRECTION ( 'NONE',  ( 0.0000000000000000000, 1.000000000000000000, 0.0000000000000000000 ) ) ;
#111 = CARTESIAN_POINT ( 'NONE',  ( 2.496409157272839907E-13, -8.756224613903572559E-15, 71.49999999999998579 ) ) ;
#112 = APPROVAL_DATE_TIME ( #56, #115 ) ;
#113 = AXIS2_PLACEMENT_3D ( 'NONE', #53, #114, #175 ) ;
#114 = DIRECTION ( 'NONE',  ( -3.491481338843133355E-15, 1.224646799147353207E-16, -1.000000000000000000 ) ) ;
#115 = APPROVAL ( #158, 'UNSPECIFIED' ) ;
#116 = EDGE_LOOP ( 'NONE', ( #201 ) ) ;
#117 = ADVANCED_FACE ( 'NONE', ( #137, #122 ), #142, .T. ) ;
#118 = EDGE_LOOP ( 'NONE', ( #90 ) ) ;
#119 = AXIS2_PLACEMENT_3D ( 'NONE', #171, #169, #37 ) ;
#120 = VERTEX_POINT ( 'NONE', #150 ) ;
#121 = DATE_AND_TIME ( #68, #148 ) ;
#122 = FACE_OUTER_BOUND ( 'NONE', #45, .T. ) ;
#123 = CARTESIAN_POINT ( 'NONE',  ( 0.0000000000000000000, 0.0000000000000000000, 0.0000000000000000000 ) ) ;
#124 = LOCAL_TIME ( 9, 49, 3.000000000000000000, #193 ) ;
#125 = COORDINATED_UNIVERSAL_TIME_OFFSET ( 1, 0, .AHEAD. ) ;
#126 = DATE_TIME_ROLE ( 'creation_date' ) ;
#127 = APPROVAL ( #188, 'UNSPECIFIED' ) ;
#128 = APPROVAL_ROLE ( '' ) ;
#129 = EDGE_LOOP ( 'NONE', ( #23 ) ) ;
#130 = CALENDAR_DATE ( 2021, 15, 11 ) ;
#131 = CC_DESIGN_APPROVAL ( #127, ( #174 ) ) ;
#132 = DIRECTION ( 'NONE',  ( -3.491481338843133355E-15, 1.224646799147353207E-16, -1.000000000000000000 ) ) ;
#133 =( GEOMETRIC_REPRESENTATION_CONTEXT ( 3 ) GLOBAL_UNCERTAINTY_ASSIGNED_CONTEXT ( ( #8 ) ) GLOBAL_UNIT_ASSIGNED_CONTEXT ( ( #203, #18, #65 ) ) REPRESENTATION_CONTEXT ( 'NONE', 'WORKASPACE' ) );
#134 = DIRECTION ( 'NONE',  ( -3.491481338843133355E-15, 1.224646799147353207E-16, -1.000000000000000000 ) ) ;
#135 = CARTESIAN_POINT ( 'NONE',  ( 3.491481338843133355E-14, 4.999999999999999112, 10.00000000000000000 ) ) ;
#136 = EDGE_CURVE ( 'NONE', #120, #120, #140, .T. ) ;
#137 = FACE_OUTER_BOUND ( 'NONE', #116, .T. ) ;
#138 = DIRECTION ( 'NONE',  ( 0.0000000000000000000, 0.0000000000000000000, 1.000000000000000000 ) ) ;
#139 = VERTEX_POINT ( 'NONE', #34 ) ;
#140 = CIRCLE ( 'NONE', #88, 5.000000000000000000 ) ;
#141 = DIRECTION ( 'NONE',  ( -4.275831445896958607E-31, -1.000000000000000000, -1.224646799147353207E-16 ) ) ;
#142 = CYLINDRICAL_SURFACE ( 'NONE', #82, 4.999999999999999112 ) ;
#143 = CC_DESIGN_PERSON_AND_ORGANIZATION_ASSIGNMENT ( #3, #106, ( #38 ) ) ;
#144 = FACE_OUTER_BOUND ( 'NONE', #180, .T. ) ;
#145 = CIRCLE ( 'NONE', #113, 4.500000000000000888 ) ;
#146 = CC_DESIGN_PERSON_AND_ORGANIZATION_ASSIGNMENT ( #99, #71, ( #92 ) ) ;
#147 = ORIENTED_EDGE ( 'NONE', *, *, #136, .T. ) ;
#148 = LOCAL_TIME ( 9, 49, 3.000000000000000000, #83 ) ;
#149 = ORIENTED_EDGE ( 'NONE', *, *, #57, .F. ) ;
#150 = CARTESIAN_POINT ( 'NONE',  ( 0.0000000000000000000, 5.000000000000000000, 0.0000000000000000000 ) ) ;
#151 = ADVANCED_BREP_SHAPE_REPRESENTATION ( '977803', ( #173, #44, #58 ), #133 ) ;
#152 = CIRCLE ( 'NONE', #79, 5.000000000000000000 ) ;
#153 = DIRECTION ( 'NONE',  ( -3.491481338843133355E-15, 1.224646799147353207E-16, -1.000000000000000000 ) ) ;
#154 = VERTEX_POINT ( 'NONE', #135 ) ;
#155 = FACE_OUTER_BOUND ( 'NONE', #129, .T. ) ;
#156 = PERSON_AND_ORGANIZATION ( #198, #160 ) ;
#157 = APPROVAL_PERSON_ORGANIZATION ( #103, #115, #42 ) ;
#158 = APPROVAL_STATUS ( 'not_yet_approved' ) ;
#159 = DIRECTION ( 'NONE',  ( -3.491481338843133355E-15, 1.224646799147353207E-16, -1.000000000000000000 ) ) ;
#160 = ORGANIZATION ( 'UNSPECIFIED', 'UNSPECIFIED', '' ) ;
#161 = CC_DESIGN_PERSON_AND_ORGANIZATION_ASSIGNMENT ( #156, #94, ( #104 ) ) ;
#162 = SECURITY_CLASSIFICATION_LEVEL ( 'unclassified' ) ;
#163 = ORIENTED_EDGE ( 'NONE', *, *, #16, .T. ) ;
#164 = ORIENTED_EDGE ( 'NONE', *, *, #85, .F. ) ;
#165 = LOCAL_TIME ( 9, 49, 3.000000000000000000, #177 ) ;
#166 = ORIENTED_EDGE ( 'NONE', *, *, #136, .F. ) ;
#167 = DIRECTION ( 'NONE',  ( 1.000000000000000000, 0.0000000000000000000, 0.0000000000000000000 ) ) ;
#168 = APPROVAL_ROLE ( '' ) ;
#169 = DIRECTION ( 'NONE',  ( 3.491481338843133355E-15, -1.224646799147353207E-16, 1.000000000000000000 ) ) ;
#170 = MECHANICAL_CONTEXT ( 'NONE', #195, 'mechanical' ) ;
#171 = CARTESIAN_POINT ( 'NONE',  ( 3.491481338843133355E-14, 3.749399456654642925E-32, 10.00000000000000000 ) ) ;
#172 = DIRECTION ( 'NONE',  ( -3.491481338843133355E-15, 1.224646799147353207E-16, -1.000000000000000000 ) ) ;
#173 = MANIFOLD_SOLID_BREP ( 'Corps-Déplacer/Copier1[1]', #41 ) ;
#174 = PRODUCT_DEFINITION_FORMATION_WITH_SPECIFIED_SOURCE ( 'ANY', '', #38, .NOT_KNOWN. ) ;
#175 = DIRECTION ( 'NONE',  ( 0.0000000000000000000, 1.000000000000000000, 0.0000000000000000000 ) ) ;
#176 = ADVANCED_FACE ( 'NONE', ( #155 ), #13, .F. ) ;
#177 = COORDINATED_UNIVERSAL_TIME_OFFSET ( 1, 0, .AHEAD. ) ;
#178 = PERSON_AND_ORGANIZATION_ROLE ( 'design_supplier' ) ;
#179 = AXIS2_PLACEMENT_3D ( 'NONE', #52, #153, #93 ) ;
#180 = EDGE_LOOP ( 'NONE', ( #147 ) ) ;
#181 = EDGE_CURVE ( 'NONE', #64, #64, #63, .T. ) ;
#182 = CC_DESIGN_PERSON_AND_ORGANIZATION_ASSIGNMENT ( #100, #178, ( #174 ) ) ;
#183 = PERSON_AND_ORGANIZATION ( #198, #160 ) ;
#184 = FACE_OUTER_BOUND ( 'NONE', #118, .T. ) ;
#185 = LOCAL_TIME ( 9, 49, 3.000000000000000000, #125 ) ;
#186 = PLANE ( 'NONE',  #119 ) ;
#187 = CALENDAR_DATE ( 2021, 15, 11 ) ;
#188 = APPROVAL_STATUS ( 'not_yet_approved' ) ;
#189 = CC_DESIGN_APPROVAL ( #115, ( #92 ) ) ;
#190 = ADVANCED_FACE ( 'NONE', ( #78 ), #32, .F. ) ;
#191 = ORIENTED_EDGE ( 'NONE', *, *, #16, .F. ) ;
#192 = CC_DESIGN_DATE_AND_TIME_ASSIGNMENT ( #20, #4, ( #92 ) ) ;
#193 = COORDINATED_UNIVERSAL_TIME_OFFSET ( 1, 0, .AHEAD. ) ;
#194 = PERSON_AND_ORGANIZATION ( #198, #160 ) ;
#195 = APPLICATION_CONTEXT ( 'configuration controlled 3d designs of mechanical parts and assemblies' ) ;
#196 = DIRECTION ( 'NONE',  ( 4.275831445896958607E-31, 1.000000000000000000, 1.224646799147353207E-16 ) ) ;
#197 = CARTESIAN_POINT ( 'NONE',  ( 0.0000000000000000000, 0.0000000000000000000, 0.0000000000000000000 ) ) ;
#198 = PERSON ( 'UNSPECIFIED', 'UNSPECIFIED', 'UNSPECIFIED', ('UNSPECIFIED'), ('UNSPECIFIED'), ('UNSPECIFIED') ) ;
#199 = EDGE_LOOP ( 'NONE', ( #166 ) ) ;
#200 = DIRECTION ( 'NONE',  ( -3.491481338843133355E-15, 1.224646799147353207E-16, -1.000000000000000000 ) ) ;
#201 = ORIENTED_EDGE ( 'NONE', *, *, #181, .T. ) ;
#202 = CC_DESIGN_DATE_AND_TIME_ASSIGNMENT ( #121, #126, ( #104 ) ) ;
#203 =( LENGTH_UNIT ( ) NAMED_UNIT ( * ) SI_UNIT ( .MILLI., .METRE. ) );
ENDSEC;
END-ISO-10303-21;
