ISO-10303-21;
HEADER;
FILE_DESCRIPTION (( 'STEP AP203' ),
    '1' );
FILE_NAME ('977802.step',
    '2021-11-15T08:49:02',
    ( '' ),
    ( '' ),
    'SwSTEP 2.0',
    'SolidWorks 2019',
    '' );
FILE_SCHEMA (( 'CONFIG_CONTROL_DESIGN' ));
ENDSEC;

DATA;
#1 = PRODUCT_DEFINITION_FORMATION_WITH_SPECIFIED_SOURCE ( 'ANY', '', #114, .NOT_KNOWN. ) ;
#2 = ADVANCED_FACE ( 'NONE', ( #16, #185 ), #154, .T. ) ;
#3 = CLOSED_SHELL ( 'NONE', ( #194, #2, #62, #175 ) ) ;
#4 = EDGE_CURVE ( 'NONE', #63, #63, #95, .T. ) ;
#5 = LOCAL_TIME ( 9, 49, 2.000000000000000000, #121 ) ;
#6 = DIRECTION ( 'NONE',  ( -3.491481338843133355E-15, 1.224646799147353207E-16, -1.000000000000000000 ) ) ;
#7 = CARTESIAN_POINT ( 'NONE',  ( -8.551662891793915461E-31, 2.999519565323715216E-32, -2.449293598294706414E-16 ) ) ;
#8 = ORIENTED_EDGE ( 'NONE', *, *, #156, .F. ) ;
#9 =( GEOMETRIC_REPRESENTATION_CONTEXT ( 3 ) GLOBAL_UNCERTAINTY_ASSIGNED_CONTEXT ( ( #149 ) ) GLOBAL_UNIT_ASSIGNED_CONTEXT ( ( #177, #91, #97 ) ) REPRESENTATION_CONTEXT ( 'NONE', 'WORKASPACE' ) );
#10 = CALENDAR_DATE ( 2021, 15, 11 ) ;
#11 = PERSON_AND_ORGANIZATION ( #142, #171 ) ;
#12 = APPLICATION_CONTEXT ( 'configuration controlled 3d designs of mechanical parts and assemblies' ) ;
#13 = APPROVAL_ROLE ( '' ) ;
#14 = CIRCLE ( 'NONE', #179, 3.999999999999999112 ) ;
#15 = APPROVAL_ROLE ( '' ) ;
#16 = FACE_OUTER_BOUND ( 'NONE', #88, .T. ) ;
#17 = CARTESIAN_POINT ( 'NONE',  ( 2.793185071074506684E-14, 3.999999999999999112, 8.000000000000000000 ) ) ;
#18 = CC_DESIGN_PERSON_AND_ORGANIZATION_ASSIGNMENT ( #23, #38, ( #114 ) ) ;
#19 = DIRECTION ( 'NONE',  ( -3.491481338843133355E-15, 1.224646799147353207E-16, -1.000000000000000000 ) ) ;
#20 = DIRECTION ( 'NONE',  ( -3.491481338843133355E-15, 1.224646799147353207E-16, -1.000000000000000000 ) ) ;
#21 = VERTEX_POINT ( 'NONE', #48 ) ;
#22 = EDGE_LOOP ( 'NONE', ( #172 ) ) ;
#23 = PERSON_AND_ORGANIZATION ( #142, #171 ) ;
#24 = EDGE_LOOP ( 'NONE', ( #98 ) ) ;
#25 = APPROVAL ( #118, 'UNSPECIFIED' ) ;
#26 = CALENDAR_DATE ( 2021, 15, 11 ) ;
#27 = APPLICATION_PROTOCOL_DEFINITION ( 'international standard', 'config_control_design', 1994, #12 ) ;
#28 = LOCAL_TIME ( 9, 49, 2.000000000000000000, #82 ) ;
#29 = AXIS2_PLACEMENT_3D ( 'NONE', #106, #83, #134 ) ;
#30 = DIRECTION ( 'NONE',  ( 4.275831445896958607E-31, 1.000000000000000000, 1.224646799147353207E-16 ) ) ;
#31 = MANIFOLD_SOLID_BREP ( 'Corps-Déplacer/Copier1[1]', #3 ) ;
#32 = CC_DESIGN_DATE_AND_TIME_ASSIGNMENT ( #151, #50, ( #69 ) ) ;
#33 = CONICAL_SURFACE ( 'NONE', #47, 3.999999999999999112, 0.7853981633974466137 ) ;
#34 = CARTESIAN_POINT ( 'NONE',  ( 3.421138828918010427E-46, 4.000000000000000000, 0.0000000000000000000 ) ) ;
#35 = ORIENTED_EDGE ( 'NONE', *, *, #184, .T. ) ;
#36 = DIRECTION ( 'NONE',  ( 3.491481338843133355E-15, -1.224646799147353207E-16, 1.000000000000000000 ) ) ;
#37 = DATE_TIME_ROLE ( 'classification_date' ) ;
#38 = PERSON_AND_ORGANIZATION_ROLE ( 'design_owner' ) ;
#39 = DIRECTION ( 'NONE',  ( -3.491481338843133355E-15, 1.224646799147353207E-16, -1.000000000000000000 ) ) ;
#40 = APPROVAL_DATE_TIME ( #186, #25 ) ;
#41 = DIRECTION ( 'NONE',  ( 0.0000000000000000000, 1.000000000000000000, 0.0000000000000000000 ) ) ;
#42 = DIRECTION ( 'NONE',  ( 4.275831445896958607E-31, 1.000000000000000000, 1.224646799147353207E-16 ) ) ;
#43 = PRODUCT_DEFINITION_SHAPE ( 'NONE', 'NONE',  #69 ) ;
#44 = DIRECTION ( 'NONE',  ( -3.491481338843133355E-15, 1.224646799147353207E-16, -1.000000000000000000 ) ) ;
#45 = CLOSED_SHELL ( 'NONE', ( #123, #109, #65 ) ) ;
#46 = CARTESIAN_POINT ( 'NONE',  ( 2.793185071074506684E-14, 3.999999999999999112, 8.000000000000000000 ) ) ;
#47 = AXIS2_PLACEMENT_3D ( 'NONE', #110, #174, #41 ) ;
#48 = CARTESIAN_POINT ( 'NONE',  ( 2.199633243471174140E-13, 3.499999999999992895, 63.00000000000000000 ) ) ;
#49 = PLANE ( 'NONE',  #56 ) ;
#50 = DATE_TIME_ROLE ( 'creation_date' ) ;
#51 = PERSON_AND_ORGANIZATION_ROLE ( 'creator' ) ;
#52 = COORDINATED_UNIVERSAL_TIME_OFFSET ( 1, 0, .AHEAD. ) ;
#53 = EDGE_LOOP ( 'NONE', ( #147 ) ) ;
#54 = SECURITY_CLASSIFICATION_LEVEL ( 'unclassified' ) ;
#55 = FACE_OUTER_BOUND ( 'NONE', #79, .T. ) ;
#56 = AXIS2_PLACEMENT_3D ( 'NONE', #181, #36, #158 ) ;
#57 = CC_DESIGN_PERSON_AND_ORGANIZATION_ASSIGNMENT ( #167, #120, ( #76 ) ) ;
#58 = EDGE_LOOP ( 'NONE', ( #119 ) ) ;
#59 = CIRCLE ( 'NONE', #87, 4.000000000000000000 ) ;
#60 = APPROVAL ( #85, 'UNSPECIFIED' ) ;
#61 = FACE_OUTER_BOUND ( 'NONE', #111, .T. ) ;
#62 = ADVANCED_FACE ( 'NONE', ( #203, #55 ), #33, .T. ) ;
#63 = VERTEX_POINT ( 'NONE', #34 ) ;
#64 = APPROVAL_PERSON_ORGANIZATION ( #11, #60, #15 ) ;
#65 = ADVANCED_FACE ( 'NONE', ( #108 ), #49, .T. ) ;
#66 = ORIENTED_EDGE ( 'NONE', *, *, #184, .F. ) ;
#67 = PERSON_AND_ORGANIZATION ( #142, #171 ) ;
#68 = PERSON_AND_ORGANIZATION ( #142, #171 ) ;
#69 = PRODUCT_DEFINITION ( 'UNKNOWN', '', #1, #99 ) ;
#70 = CC_DESIGN_APPROVAL ( #25, ( #76 ) ) ;
#71 = EDGE_CURVE ( 'NONE', #21, #21, #161, .T. ) ;
#72 = CC_DESIGN_SECURITY_CLASSIFICATION ( #76, ( #1 ) ) ;
#73 = VERTEX_POINT ( 'NONE', #162 ) ;
#74 = DIRECTION ( 'NONE',  ( 0.0000000000000000000, 1.000000000000000000, 0.0000000000000000000 ) ) ;
#75 = CARTESIAN_POINT ( 'NONE',  ( 2.793185071074506684E-14, -9.797174393178825657E-16, 8.000000000000000000 ) ) ;
#76 = SECURITY_CLASSIFICATION ( '', '', #54 ) ;
#77 = DIRECTION ( 'NONE',  ( -3.491481338843133355E-15, 1.224646799147353207E-16, -1.000000000000000000 ) ) ;
#78 = PERSON_AND_ORGANIZATION ( #142, #171 ) ;
#79 = EDGE_LOOP ( 'NONE', ( #66 ) ) ;
#80 = CC_DESIGN_PERSON_AND_ORGANIZATION_ASSIGNMENT ( #68, #51, ( #1 ) ) ;
#81 = CC_DESIGN_APPROVAL ( #93, ( #69 ) ) ;
#82 = COORDINATED_UNIVERSAL_TIME_OFFSET ( 1, 0, .AHEAD. ) ;
#83 = DIRECTION ( 'NONE',  ( 0.0000000000000000000, 0.0000000000000000000, 1.000000000000000000 ) ) ;
#84 = PERSON_AND_ORGANIZATION ( #142, #171 ) ;
#85 = APPROVAL_STATUS ( 'not_yet_approved' ) ;
#86 = CC_DESIGN_PERSON_AND_ORGANIZATION_ASSIGNMENT ( #67, #135, ( #69 ) ) ;
#87 = AXIS2_PLACEMENT_3D ( 'NONE', #195, #19, #130 ) ;
#88 = EDGE_LOOP ( 'NONE', ( #35 ) ) ;
#89 = AXIS2_PLACEMENT_3D ( 'NONE', #176, #20, #30 ) ;
#90 = PLANE ( 'NONE',  #126 ) ;
#91 =( NAMED_UNIT ( * ) PLANE_ANGLE_UNIT ( ) SI_UNIT ( $, .RADIAN. ) );
#92 = DIRECTION ( 'NONE',  ( -3.491481338843133355E-15, 1.224646799147353207E-16, -1.000000000000000000 ) ) ;
#93 = APPROVAL ( #200, 'UNSPECIFIED' ) ;
#94 = DIRECTION ( 'NONE',  ( 3.491481338843133355E-15, -1.224646799147353207E-16, 1.000000000000000000 ) ) ;
#95 = CIRCLE ( 'NONE', #101, 4.000000000000000000 ) ;
#96 = CARTESIAN_POINT ( 'NONE',  ( 2.182175836776958284E-13, -7.654042494670957804E-15, 62.50000000000000000 ) ) ;
#97 =( NAMED_UNIT ( * ) SI_UNIT ( $, .STERADIAN. ) SOLID_ANGLE_UNIT ( ) );
#98 = ORIENTED_EDGE ( 'NONE', *, *, #4, .F. ) ;
#99 = DESIGN_CONTEXT ( 'detailed design', #170, 'design' ) ;
#100 = MECHANICAL_CONTEXT ( 'NONE', #12, 'mechanical' ) ;
#101 = AXIS2_PLACEMENT_3D ( 'NONE', #117, #39, #42 ) ;
#102 = DATE_AND_TIME ( #202, #153 ) ;
#103 = ADVANCED_BREP_SHAPE_REPRESENTATION ( '977802', ( #31, #105, #29 ), #9 ) ;
#104 = APPROVAL_DATE_TIME ( #102, #93 ) ;
#105 = MANIFOLD_SOLID_BREP ( 'Corps-Déplacer/Copier1[2]', #45 ) ;
#106 = CARTESIAN_POINT ( 'NONE',  ( 0.0000000000000000000, 0.0000000000000000000, 0.0000000000000000000 ) ) ;
#107 = SHAPE_DEFINITION_REPRESENTATION ( #43, #103 ) ;
#108 = FACE_OUTER_BOUND ( 'NONE', #22, .T. ) ;
#109 = ADVANCED_FACE ( 'NONE', ( #61, #128 ), #191, .T. ) ;
#110 = CARTESIAN_POINT ( 'NONE',  ( 2.182175836776958284E-13, -7.654042494670957804E-15, 62.50000000000000000 ) ) ;
#111 = EDGE_LOOP ( 'NONE', ( #180 ) ) ;
#112 = DIRECTION ( 'NONE',  ( -4.275831445896958607E-31, -1.000000000000000000, -1.224646799147353207E-16 ) ) ;
#113 = DIRECTION ( 'NONE',  ( 0.0000000000000000000, 1.000000000000000000, 0.0000000000000000000 ) ) ;
#114 = PRODUCT ( '977802', '977802', '', ( #100 ) ) ;
#115 = DIRECTION ( 'NONE',  ( 4.275831445896958607E-31, 1.000000000000000000, 1.224646799147353207E-16 ) ) ;
#116 = EDGE_CURVE ( 'NONE', #132, #132, #124, .T. ) ;
#117 = CARTESIAN_POINT ( 'NONE',  ( -1.710332578358783092E-30, 5.999039130647430431E-32, -4.898587196589412829E-16 ) ) ;
#118 = APPROVAL_STATUS ( 'not_yet_approved' ) ;
#119 = ORIENTED_EDGE ( 'NONE', *, *, #71, .F. ) ;
#120 = PERSON_AND_ORGANIZATION_ROLE ( 'classification_officer' ) ;
#121 = COORDINATED_UNIVERSAL_TIME_OFFSET ( 1, 0, .AHEAD. ) ;
#122 = PERSON_AND_ORGANIZATION_ROLE ( 'design_supplier' ) ;
#123 = ADVANCED_FACE ( 'NONE', ( #159 ), #131, .T. ) ;
#124 = CIRCLE ( 'NONE', #183, 4.000000000000000000 ) ;
#125 = PRODUCT_RELATED_PRODUCT_CATEGORY ( 'detail', '', ( #114 ) ) ;
#126 = AXIS2_PLACEMENT_3D ( 'NONE', #157, #77, #115 ) ;
#127 = FACE_OUTER_BOUND ( 'NONE', #53, .T. ) ;
#128 = FACE_OUTER_BOUND ( 'NONE', #24, .T. ) ;
#129 = PLANE ( 'NONE',  #201 ) ;
#130 = DIRECTION ( 'NONE',  ( 0.0000000000000000000, 1.000000000000000000, 0.0000000000000000000 ) ) ;
#131 = PLANE ( 'NONE',  #143 ) ;
#132 = VERTEX_POINT ( 'NONE', #46 ) ;
#133 = APPROVAL_PERSON_ORGANIZATION ( #84, #25, #13 ) ;
#134 = DIRECTION ( 'NONE',  ( 1.000000000000000000, 0.0000000000000000000, 0.0000000000000000000 ) ) ;
#135 = PERSON_AND_ORGANIZATION_ROLE ( 'creator' ) ;
#136 = DATE_AND_TIME ( #10, #28 ) ;
#137 = COORDINATED_UNIVERSAL_TIME_OFFSET ( 1, 0, .AHEAD. ) ;
#138 = CALENDAR_DATE ( 2021, 15, 11 ) ;
#139 = DIRECTION ( 'NONE',  ( 4.275831445896958607E-31, 1.000000000000000000, 1.224646799147353207E-16 ) ) ;
#140 = CC_DESIGN_PERSON_AND_ORGANIZATION_ASSIGNMENT ( #78, #122, ( #1 ) ) ;
#141 = LOCAL_TIME ( 9, 49, 2.000000000000000000, #137 ) ;
#142 = PERSON ( 'UNSPECIFIED', 'UNSPECIFIED', 'UNSPECIFIED', ('UNSPECIFIED'), ('UNSPECIFIED'), ('UNSPECIFIED') ) ;
#143 = AXIS2_PLACEMENT_3D ( 'NONE', #7, #6, #160 ) ;
#144 = LOCAL_TIME ( 9, 49, 2.000000000000000000, #52 ) ;
#145 = DIRECTION ( 'NONE',  ( -3.491481338843133355E-15, 1.224646799147353207E-16, -1.000000000000000000 ) ) ;
#146 = CC_DESIGN_APPROVAL ( #60, ( #1 ) ) ;
#147 = ORIENTED_EDGE ( 'NONE', *, *, #156, .T. ) ;
#148 = AXIS2_PLACEMENT_3D ( 'NONE', #189, #145, #113 ) ;
#149 = UNCERTAINTY_MEASURE_WITH_UNIT (LENGTH_MEASURE( 1.000000000000000082E-05 ), #177, 'distance_accuracy_value', 'NONE');
#150 = ORIENTED_EDGE ( 'NONE', *, *, #71, .T. ) ;
#151 = DATE_AND_TIME ( #166, #144 ) ;
#152 = PERSON_AND_ORGANIZATION ( #142, #171 ) ;
#153 = LOCAL_TIME ( 9, 49, 2.000000000000000000, #169 ) ;
#154 = CYLINDRICAL_SURFACE ( 'NONE', #165, 4.000000000000000000 ) ;
#155 = EDGE_LOOP ( 'NONE', ( #150 ) ) ;
#156 = EDGE_CURVE ( 'NONE', #196, #196, #59, .T. ) ;
#157 = CARTESIAN_POINT ( 'NONE',  ( 2.199633243471174140E-13, 2.624579619658239319E-32, 63.00000000000000000 ) ) ;
#158 = DIRECTION ( 'NONE',  ( -4.275831445896958607E-31, -1.000000000000000000, -1.224646799147353207E-16 ) ) ;
#159 = FACE_OUTER_BOUND ( 'NONE', #163, .T. ) ;
#160 = DIRECTION ( 'NONE',  ( 4.275831445896958607E-31, 1.000000000000000000, 1.224646799147353207E-16 ) ) ;
#161 = CIRCLE ( 'NONE', #148, 3.500000000000000444 ) ;
#162 = CARTESIAN_POINT ( 'NONE',  ( 2.182175836776958284E-13, 3.999999999999991562, 62.50000000000000000 ) ) ;
#163 = EDGE_LOOP ( 'NONE', ( #198 ) ) ;
#164 = APPROVAL_DATE_TIME ( #136, #60 ) ;
#165 = AXIS2_PLACEMENT_3D ( 'NONE', #188, #187, #139 ) ;
#166 = CALENDAR_DATE ( 2021, 15, 11 ) ;
#167 = PERSON_AND_ORGANIZATION ( #142, #171 ) ;
#168 = CC_DESIGN_DATE_AND_TIME_ASSIGNMENT ( #182, #37, ( #76 ) ) ;
#169 = COORDINATED_UNIVERSAL_TIME_OFFSET ( 1, 0, .AHEAD. ) ;
#170 = APPLICATION_CONTEXT ( 'configuration controlled 3d designs of mechanical parts and assemblies' ) ;
#171 = ORGANIZATION ( 'UNSPECIFIED', 'UNSPECIFIED', '' ) ;
#172 = ORIENTED_EDGE ( 'NONE', *, *, #116, .F. ) ;
#173 = EDGE_LOOP ( 'NONE', ( #8 ) ) ;
#174 = DIRECTION ( 'NONE',  ( -3.491481338843133355E-15, 1.224646799147353207E-16, -1.000000000000000000 ) ) ;
#175 = ADVANCED_FACE ( 'NONE', ( #190 ), #90, .F. ) ;
#176 = CARTESIAN_POINT ( 'NONE',  ( 0.0000000000000000000, 0.0000000000000000000, 0.0000000000000000000 ) ) ;
#177 =( LENGTH_UNIT ( ) NAMED_UNIT ( * ) SI_UNIT ( .MILLI., .METRE. ) );
#178 = DIRECTION ( 'NONE',  ( 0.0000000000000000000, 1.000000000000000000, 0.0000000000000000000 ) ) ;
#179 = AXIS2_PLACEMENT_3D ( 'NONE', #96, #44, #178 ) ;
#180 = ORIENTED_EDGE ( 'NONE', *, *, #116, .T. ) ;
#181 = CARTESIAN_POINT ( 'NONE',  ( 2.793185071074506684E-14, 2.999519565323713574E-32, 8.000000000000000000 ) ) ;
#182 = DATE_AND_TIME ( #26, #5 ) ;
#183 = AXIS2_PLACEMENT_3D ( 'NONE', #75, #92, #74 ) ;
#184 = EDGE_CURVE ( 'NONE', #73, #73, #14, .T. ) ;
#185 = FACE_OUTER_BOUND ( 'NONE', #173, .T. ) ;
#186 = DATE_AND_TIME ( #138, #141 ) ;
#187 = DIRECTION ( 'NONE',  ( -3.491481338843133355E-15, 1.224646799147353207E-16, -1.000000000000000000 ) ) ;
#188 = CARTESIAN_POINT ( 'NONE',  ( 0.0000000000000000000, 0.0000000000000000000, 0.0000000000000000000 ) ) ;
#189 = CARTESIAN_POINT ( 'NONE',  ( 2.199633243471174140E-13, -7.715274834628325378E-15, 63.00000000000000000 ) ) ;
#190 = FACE_OUTER_BOUND ( 'NONE', #58, .T. ) ;
#191 = CYLINDRICAL_SURFACE ( 'NONE', #89, 4.000000000000000000 ) ;
#192 = APPROVAL_PERSON_ORGANIZATION ( #152, #93, #199 ) ;
#193 = CARTESIAN_POINT ( 'NONE',  ( 2.793185071074506684E-14, 2.999519565323713574E-32, 8.000000000000000000 ) ) ;
#194 = ADVANCED_FACE ( 'NONE', ( #127 ), #129, .F. ) ;
#195 = CARTESIAN_POINT ( 'NONE',  ( 2.793185071074506684E-14, -9.797174393178825657E-16, 8.000000000000000000 ) ) ;
#196 = VERTEX_POINT ( 'NONE', #17 ) ;
#197 = APPLICATION_PROTOCOL_DEFINITION ( 'international standard', 'config_control_design', 1994, #170 ) ;
#198 = ORIENTED_EDGE ( 'NONE', *, *, #4, .T. ) ;
#199 = APPROVAL_ROLE ( '' ) ;
#200 = APPROVAL_STATUS ( 'not_yet_approved' ) ;
#201 = AXIS2_PLACEMENT_3D ( 'NONE', #193, #94, #112 ) ;
#202 = CALENDAR_DATE ( 2021, 15, 11 ) ;
#203 = FACE_BOUND ( 'NONE', #155, .T. ) ;
ENDSEC;
END-ISO-10303-21;
