ISO-10303-21;
HEADER;
FILE_DESCRIPTION (( 'STEP AP203' ),
    '1' );
FILE_NAME ('977801.step',
    '2021-11-15T08:49:02',
    ( '' ),
    ( '' ),
    'SwSTEP 2.0',
    'SolidWorks 2019',
    '' );
FILE_SCHEMA (( 'CONFIG_CONTROL_DESIGN' ));
ENDSEC;

DATA;
#1 = CIRCLE ( 'NONE', #191, 3.000000000000000444 ) ;
#2 = ADVANCED_BREP_SHAPE_REPRESENTATION ( '977801', ( #76, #202, #116 ), #74 ) ;
#3 = LOCAL_TIME ( 9, 49, 2.000000000000000000, #91 ) ;
#4 = EDGE_LOOP ( 'NONE', ( #186 ) ) ;
#5 = PLANE ( 'NONE',  #59 ) ;
#6 = DIRECTION ( 'NONE',  ( 3.491481338843133355E-15, -1.224646799147353207E-16, 1.000000000000000000 ) ) ;
#7 = EDGE_CURVE ( 'NONE', #41, #41, #70, .T. ) ;
#8 = DIRECTION ( 'NONE',  ( -3.491481338843133355E-15, 1.224646799147353207E-16, -1.000000000000000000 ) ) ;
#9 = AXIS2_PLACEMENT_3D ( 'NONE', #79, #8, #181 ) ;
#10 = DIRECTION ( 'NONE',  ( -3.491481338843133355E-15, 1.224646799147353207E-16, -1.000000000000000000 ) ) ;
#11 = AXIS2_PLACEMENT_3D ( 'NONE', #189, #159, #113 ) ;
#12 = PRODUCT ( '977801', '977801', '', ( #64 ) ) ;
#13 = PERSON_AND_ORGANIZATION ( #170, #20 ) ;
#14 = AXIS2_PLACEMENT_3D ( 'NONE', #101, #6, #57 ) ;
#15 = AXIS2_PLACEMENT_3D ( 'NONE', #54, #10, #129 ) ;
#16 = SECURITY_CLASSIFICATION_LEVEL ( 'unclassified' ) ;
#17 = CALENDAR_DATE ( 2021, 15, 11 ) ;
#18 = ORIENTED_EDGE ( 'NONE', *, *, #188, .T. ) ;
#19 = DIRECTION ( 'NONE',  ( -3.491481338843133355E-15, 1.224646799147353207E-16, -1.000000000000000000 ) ) ;
#20 = ORGANIZATION ( 'UNSPECIFIED', 'UNSPECIFIED', '' ) ;
#21 = DIRECTION ( 'NONE',  ( 4.275831445896958607E-31, 1.000000000000000000, 1.224646799147353207E-16 ) ) ;
#22 = DIRECTION ( 'NONE',  ( 0.0000000000000000000, 1.000000000000000000, 0.0000000000000000000 ) ) ;
#23 = DIRECTION ( 'NONE',  ( -3.491481338843133355E-15, 1.224646799147353207E-16, -1.000000000000000000 ) ) ;
#24 = VERTEX_POINT ( 'NONE', #103 ) ;
#25 = CC_DESIGN_APPROVAL ( #120, ( #136 ) ) ;
#26 = APPLICATION_PROTOCOL_DEFINITION ( 'international standard', 'config_control_design', 1994, #80 ) ;
#27 = DATE_AND_TIME ( #168, #121 ) ;
#28 =( NAMED_UNIT ( * ) SI_UNIT ( $, .STERADIAN. ) SOLID_ANGLE_UNIT ( ) );
#29 = EDGE_CURVE ( 'NONE', #132, #132, #1, .T. ) ;
#30 = APPLICATION_PROTOCOL_DEFINITION ( 'international standard', 'config_control_design', 1994, #193 ) ;
#31 = PERSON_AND_ORGANIZATION ( #170, #20 ) ;
#32 = ADVANCED_FACE ( 'NONE', ( #36, #142 ), #75, .T. ) ;
#33 = CARTESIAN_POINT ( 'NONE',  ( 1.728283262727351074E-13, -6.062001655779398511E-15, 49.50000000000000000 ) ) ;
#34 = PRODUCT_DEFINITION_SHAPE ( 'NONE', 'NONE',  #138 ) ;
#35 = EDGE_LOOP ( 'NONE', ( #139 ) ) ;
#36 = FACE_OUTER_BOUND ( 'NONE', #100, .T. ) ;
#37 = FACE_OUTER_BOUND ( 'NONE', #35, .T. ) ;
#38 = AXIS2_PLACEMENT_3D ( 'NONE', #179, #23, #145 ) ;
#39 = SECURITY_CLASSIFICATION ( '', '', #16 ) ;
#40 = APPROVAL ( #93, 'UNSPECIFIED' ) ;
#41 = VERTEX_POINT ( 'NONE', #90 ) ;
#42 = FACE_OUTER_BOUND ( 'NONE', #126, .T. ) ;
#43 = PLANE ( 'NONE',  #14 ) ;
#44 = ADVANCED_FACE ( 'NONE', ( #96, #163 ), #89, .T. ) ;
#45 = CARTESIAN_POINT ( 'NONE',  ( 0.0000000000000000000, 3.000000000000000000, 0.0000000000000000000 ) ) ;
#46 = SHAPE_DEFINITION_REPRESENTATION ( #34, #2 ) ;
#47 = DIRECTION ( 'NONE',  ( 1.000000000000000000, 0.0000000000000000000, 0.0000000000000000000 ) ) ;
#48 = CIRCLE ( 'NONE', #15, 3.000000000000000000 ) ;
#49 = APPROVAL_STATUS ( 'not_yet_approved' ) ;
#50 = APPROVAL_STATUS ( 'not_yet_approved' ) ;
#51 = PERSON_AND_ORGANIZATION ( #170, #20 ) ;
#52 = ORIENTED_EDGE ( 'NONE', *, *, #7, .T. ) ;
#53 = ORIENTED_EDGE ( 'NONE', *, *, #110, .T. ) ;
#54 = CARTESIAN_POINT ( 'NONE',  ( -1.282749433769087757E-30, 4.499279347985572824E-32, -3.673940397442059868E-16 ) ) ;
#55 = DIRECTION ( 'NONE',  ( -3.491481338843133355E-15, 1.224646799147353207E-16, -1.000000000000000000 ) ) ;
#56 = APPROVAL_PERSON_ORGANIZATION ( #67, #68, #61 ) ;
#57 = DIRECTION ( 'NONE',  ( -4.275831445896958607E-31, -1.000000000000000000, -1.224646799147353207E-16 ) ) ;
#58 = VERTEX_POINT ( 'NONE', #45 ) ;
#59 = AXIS2_PLACEMENT_3D ( 'NONE', #161, #55, #105 ) ;
#60 = PERSON_AND_ORGANIZATION_ROLE ( 'creator' ) ;
#61 = APPROVAL_ROLE ( '' ) ;
#62 = CARTESIAN_POINT ( 'NONE',  ( 0.0000000000000000000, 0.0000000000000000000, 0.0000000000000000000 ) ) ;
#63 = APPROVAL_ROLE ( '' ) ;
#64 = MECHANICAL_CONTEXT ( 'NONE', #80, 'mechanical' ) ;
#65 = CIRCLE ( 'NONE', #38, 3.000000000000000000 ) ;
#66 = LOCAL_TIME ( 9, 49, 2.000000000000000000, #123 ) ;
#67 = PERSON_AND_ORGANIZATION ( #170, #20 ) ;
#68 = APPROVAL ( #50, 'UNSPECIFIED' ) ;
#69 = CALENDAR_DATE ( 2021, 15, 11 ) ;
#70 = CIRCLE ( 'NONE', #11, 3.000000000000000000 ) ;
#71 = EDGE_LOOP ( 'NONE', ( #53 ) ) ;
#72 = DATE_AND_TIME ( #172, #82 ) ;
#73 = ORIENTED_EDGE ( 'NONE', *, *, #188, .F. ) ;
#74 =( GEOMETRIC_REPRESENTATION_CONTEXT ( 3 ) GLOBAL_UNCERTAINTY_ASSIGNED_CONTEXT ( ( #84 ) ) GLOBAL_UNIT_ASSIGNED_CONTEXT ( ( #107, #124, #28 ) ) REPRESENTATION_CONTEXT ( 'NONE', 'WORKASPACE' ) );
#75 = CYLINDRICAL_SURFACE ( 'NONE', #131, 3.000000000000000000 ) ;
#76 = MANIFOLD_SOLID_BREP ( 'Corps-Déplacer/Copier1[1]', #169 ) ;
#77 = VERTEX_POINT ( 'NONE', #119 ) ;
#78 = CARTESIAN_POINT ( 'NONE',  ( 1.745740669421566678E-13, -6.123233995736766085E-15, 50.00000000000000000 ) ) ;
#79 = CARTESIAN_POINT ( 'NONE',  ( 0.0000000000000000000, 0.0000000000000000000, 0.0000000000000000000 ) ) ;
#80 = APPLICATION_CONTEXT ( 'configuration controlled 3d designs of mechanical parts and assemblies' ) ;
#81 = FACE_OUTER_BOUND ( 'NONE', #127, .T. ) ;
#82 = LOCAL_TIME ( 9, 49, 2.000000000000000000, #114 ) ;
#83 = ADVANCED_FACE ( 'NONE', ( #118, #42 ), #125, .T. ) ;
#84 = UNCERTAINTY_MEASURE_WITH_UNIT (LENGTH_MEASURE( 1.000000000000000082E-05 ), #107, 'distance_accuracy_value', 'NONE');
#85 = CC_DESIGN_PERSON_AND_ORGANIZATION_ASSIGNMENT ( #112, #171, ( #39 ) ) ;
#86 = DATE_AND_TIME ( #17, #3 ) ;
#87 = DIRECTION ( 'NONE',  ( 0.0000000000000000000, 1.000000000000000000, 0.0000000000000000000 ) ) ;
#88 = DIRECTION ( 'NONE',  ( -4.275831445896958607E-31, -1.000000000000000000, -1.224646799147353207E-16 ) ) ;
#89 = CYLINDRICAL_SURFACE ( 'NONE', #9, 3.000000000000000000 ) ;
#90 = CARTESIAN_POINT ( 'NONE',  ( 2.094888803305880013E-14, 2.999999999999999112, 6.000000000000000000 ) ) ;
#91 = COORDINATED_UNIVERSAL_TIME_OFFSET ( 1, 0, .AHEAD. ) ;
#92 = PERSON_AND_ORGANIZATION_ROLE ( 'design_owner' ) ;
#93 = APPROVAL_STATUS ( 'not_yet_approved' ) ;
#94 = APPROVAL_PERSON_ORGANIZATION ( #13, #40, #199 ) ;
#95 = CC_DESIGN_SECURITY_CLASSIFICATION ( #39, ( #136 ) ) ;
#96 = FACE_OUTER_BOUND ( 'NONE', #4, .T. ) ;
#97 = EDGE_LOOP ( 'NONE', ( #18 ) ) ;
#98 = ADVANCED_FACE ( 'NONE', ( #190 ), #149, .T. ) ;
#99 = APPROVAL_DATE_TIME ( #72, #120 ) ;
#100 = EDGE_LOOP ( 'NONE', ( #52 ) ) ;
#101 = CARTESIAN_POINT ( 'NONE',  ( 2.094888803305880013E-14, 2.249639673992785317E-32, 6.000000000000000000 ) ) ;
#102 = AXIS2_PLACEMENT_3D ( 'NONE', #130, #104, #164 ) ;
#103 = CARTESIAN_POINT ( 'NONE',  ( 2.094888803305880013E-14, 2.999999999999999112, 6.000000000000000000 ) ) ;
#104 = DIRECTION ( 'NONE',  ( -3.491481338843133355E-15, 1.224646799147353207E-16, -1.000000000000000000 ) ) ;
#105 = DIRECTION ( 'NONE',  ( 4.275831445896958607E-31, 1.000000000000000000, 1.224646799147353207E-16 ) ) ;
#106 = CC_DESIGN_DATE_AND_TIME_ASSIGNMENT ( #27, #197, ( #138 ) ) ;
#107 =( LENGTH_UNIT ( ) NAMED_UNIT ( * ) SI_UNIT ( .MILLI., .METRE. ) );
#108 = DESIGN_CONTEXT ( 'detailed design', #193, 'design' ) ;
#109 = CC_DESIGN_DATE_AND_TIME_ASSIGNMENT ( #156, #137, ( #39 ) ) ;
#110 = EDGE_CURVE ( 'NONE', #58, #58, #48, .T. ) ;
#111 = DIRECTION ( 'NONE',  ( 4.275831445896959482E-31, 1.000000000000000000, 1.224646799147353207E-16 ) ) ;
#112 = PERSON_AND_ORGANIZATION ( #170, #20 ) ;
#113 = DIRECTION ( 'NONE',  ( 0.0000000000000000000, 1.000000000000000000, 0.0000000000000000000 ) ) ;
#114 = COORDINATED_UNIVERSAL_TIME_OFFSET ( 1, 0, .AHEAD. ) ;
#115 = EDGE_LOOP ( 'NONE', ( #177 ) ) ;
#116 = AXIS2_PLACEMENT_3D ( 'NONE', #62, #200, #47 ) ;
#117 = EDGE_CURVE ( 'NONE', #77, #77, #157, .T. ) ;
#118 = FACE_BOUND ( 'NONE', #203, .T. ) ;
#119 = CARTESIAN_POINT ( 'NONE',  ( 1.745740669421566678E-13, 2.499999999999993783, 50.00000000000000000 ) ) ;
#120 = APPROVAL ( #49, 'UNSPECIFIED' ) ;
#121 = LOCAL_TIME ( 9, 49, 2.000000000000000000, #150 ) ;
#122 = PERSON_AND_ORGANIZATION ( #170, #20 ) ;
#123 = COORDINATED_UNIVERSAL_TIME_OFFSET ( 1, 0, .AHEAD. ) ;
#124 =( NAMED_UNIT ( * ) PLANE_ANGLE_UNIT ( ) SI_UNIT ( $, .RADIAN. ) );
#125 = CONICAL_SURFACE ( 'NONE', #102, 3.000000000000000444, 0.7853981633974482790 ) ;
#126 = EDGE_LOOP ( 'NONE', ( #173 ) ) ;
#127 = EDGE_LOOP ( 'NONE', ( #175 ) ) ;
#128 = AXIS2_PLACEMENT_3D ( 'NONE', #78, #147, #22 ) ;
#129 = DIRECTION ( 'NONE',  ( 4.275831445896959482E-31, 1.000000000000000000, 1.224646799147353207E-16 ) ) ;
#130 = CARTESIAN_POINT ( 'NONE',  ( 1.728283262727351074E-13, -6.062001655779398511E-15, 49.50000000000000000 ) ) ;
#131 = AXIS2_PLACEMENT_3D ( 'NONE', #158, #19, #111 ) ;
#132 = VERTEX_POINT ( 'NONE', #192 ) ;
#133 = CARTESIAN_POINT ( 'NONE',  ( 2.094888803305880013E-14, 2.249639673992785317E-32, 6.000000000000000000 ) ) ;
#134 = CC_DESIGN_PERSON_AND_ORGANIZATION_ASSIGNMENT ( #185, #187, ( #136 ) ) ;
#135 = DIRECTION ( 'NONE',  ( -3.491481338843133355E-15, 1.224646799147353207E-16, -1.000000000000000000 ) ) ;
#136 = PRODUCT_DEFINITION_FORMATION_WITH_SPECIFIED_SOURCE ( 'ANY', '', #12, .NOT_KNOWN. ) ;
#137 = DATE_TIME_ROLE ( 'classification_date' ) ;
#138 = PRODUCT_DEFINITION ( 'UNKNOWN', '', #136, #108 ) ;
#139 = ORIENTED_EDGE ( 'NONE', *, *, #7, .F. ) ;
#140 = EDGE_LOOP ( 'NONE', ( #73 ) ) ;
#141 = ORIENTED_EDGE ( 'NONE', *, *, #117, .T. ) ;
#142 = FACE_OUTER_BOUND ( 'NONE', #115, .T. ) ;
#143 = AXIS2_PLACEMENT_3D ( 'NONE', #182, #135, #21 ) ;
#144 = CC_DESIGN_APPROVAL ( #68, ( #39 ) ) ;
#145 = DIRECTION ( 'NONE',  ( 0.0000000000000000000, 1.000000000000000000, 0.0000000000000000000 ) ) ;
#146 = DIRECTION ( 'NONE',  ( 3.491481338843133355E-15, -1.224646799147353207E-16, 1.000000000000000000 ) ) ;
#147 = DIRECTION ( 'NONE',  ( -3.491481338843133355E-15, 1.224646799147353207E-16, -1.000000000000000000 ) ) ;
#148 = CLOSED_SHELL ( 'NONE', ( #98, #32, #165 ) ) ;
#149 = PLANE ( 'NONE',  #143 ) ;
#150 = COORDINATED_UNIVERSAL_TIME_OFFSET ( 1, 0, .AHEAD. ) ;
#151 = CC_DESIGN_APPROVAL ( #40, ( #138 ) ) ;
#152 = PERSON_AND_ORGANIZATION ( #170, #20 ) ;
#153 = PRODUCT_RELATED_PRODUCT_CATEGORY ( 'detail', '', ( #12 ) ) ;
#154 = DATE_AND_TIME ( #69, #66 ) ;
#155 = DIRECTION ( 'NONE',  ( -3.491481338843133355E-15, 1.224646799147353207E-16, -1.000000000000000000 ) ) ;
#156 = DATE_AND_TIME ( #198, #183 ) ;
#157 = CIRCLE ( 'NONE', #128, 2.500000000000000000 ) ;
#158 = CARTESIAN_POINT ( 'NONE',  ( 0.0000000000000000000, 0.0000000000000000000, 0.0000000000000000000 ) ) ;
#159 = DIRECTION ( 'NONE',  ( -3.491481338843133355E-15, 1.224646799147353207E-16, -1.000000000000000000 ) ) ;
#160 = CC_DESIGN_PERSON_AND_ORGANIZATION_ASSIGNMENT ( #122, #60, ( #138 ) ) ;
#161 = CARTESIAN_POINT ( 'NONE',  ( 1.745740669421566678E-13, 1.874699728327312978E-32, 50.00000000000000000 ) ) ;
#162 = APPROVAL_PERSON_ORGANIZATION ( #152, #120, #63 ) ;
#163 = FACE_OUTER_BOUND ( 'NONE', #140, .T. ) ;
#164 = DIRECTION ( 'NONE',  ( 0.0000000000000000000, 1.000000000000000000, 0.0000000000000000000 ) ) ;
#165 = ADVANCED_FACE ( 'NONE', ( #37 ), #43, .T. ) ;
#166 = PLANE ( 'NONE',  #201 ) ;
#167 = FACE_OUTER_BOUND ( 'NONE', #97, .T. ) ;
#168 = CALENDAR_DATE ( 2021, 15, 11 ) ;
#169 = CLOSED_SHELL ( 'NONE', ( #180, #44, #83, #176 ) ) ;
#170 = PERSON ( 'UNSPECIFIED', 'UNSPECIFIED', 'UNSPECIFIED', ('UNSPECIFIED'), ('UNSPECIFIED'), ('UNSPECIFIED') ) ;
#171 = PERSON_AND_ORGANIZATION_ROLE ( 'classification_officer' ) ;
#172 = CALENDAR_DATE ( 2021, 15, 11 ) ;
#173 = ORIENTED_EDGE ( 'NONE', *, *, #29, .F. ) ;
#174 = COORDINATED_UNIVERSAL_TIME_OFFSET ( 1, 0, .AHEAD. ) ;
#175 = ORIENTED_EDGE ( 'NONE', *, *, #117, .F. ) ;
#176 = ADVANCED_FACE ( 'NONE', ( #81 ), #5, .F. ) ;
#177 = ORIENTED_EDGE ( 'NONE', *, *, #110, .F. ) ;
#178 = CC_DESIGN_PERSON_AND_ORGANIZATION_ASSIGNMENT ( #51, #195, ( #136 ) ) ;
#179 = CARTESIAN_POINT ( 'NONE',  ( 2.094888803305880013E-14, -7.347880794884119736E-16, 6.000000000000000000 ) ) ;
#180 = ADVANCED_FACE ( 'NONE', ( #167 ), #166, .F. ) ;
#181 = DIRECTION ( 'NONE',  ( 4.275831445896959482E-31, 1.000000000000000000, 1.224646799147353207E-16 ) ) ;
#182 = CARTESIAN_POINT ( 'NONE',  ( -6.413747168845438786E-31, 2.249639673992786412E-32, -1.836970198721029934E-16 ) ) ;
#183 = LOCAL_TIME ( 9, 49, 2.000000000000000000, #174 ) ;
#184 = APPROVAL_DATE_TIME ( #154, #68 ) ;
#185 = PERSON_AND_ORGANIZATION ( #170, #20 ) ;
#186 = ORIENTED_EDGE ( 'NONE', *, *, #29, .T. ) ;
#187 = PERSON_AND_ORGANIZATION_ROLE ( 'creator' ) ;
#188 = EDGE_CURVE ( 'NONE', #24, #24, #65, .T. ) ;
#189 = CARTESIAN_POINT ( 'NONE',  ( 2.094888803305880013E-14, -7.347880794884119736E-16, 6.000000000000000000 ) ) ;
#190 = FACE_OUTER_BOUND ( 'NONE', #71, .T. ) ;
#191 = AXIS2_PLACEMENT_3D ( 'NONE', #33, #155, #87 ) ;
#192 = CARTESIAN_POINT ( 'NONE',  ( 1.728283262727351074E-13, 2.999999999999994227, 49.50000000000000000 ) ) ;
#193 = APPLICATION_CONTEXT ( 'configuration controlled 3d designs of mechanical parts and assemblies' ) ;
#194 = APPROVAL_DATE_TIME ( #86, #40 ) ;
#195 = PERSON_AND_ORGANIZATION_ROLE ( 'design_supplier' ) ;
#196 = CC_DESIGN_PERSON_AND_ORGANIZATION_ASSIGNMENT ( #31, #92, ( #12 ) ) ;
#197 = DATE_TIME_ROLE ( 'creation_date' ) ;
#198 = CALENDAR_DATE ( 2021, 15, 11 ) ;
#199 = APPROVAL_ROLE ( '' ) ;
#200 = DIRECTION ( 'NONE',  ( 0.0000000000000000000, 0.0000000000000000000, 1.000000000000000000 ) ) ;
#201 = AXIS2_PLACEMENT_3D ( 'NONE', #133, #146, #88 ) ;
#202 = MANIFOLD_SOLID_BREP ( 'Corps-Déplacer/Copier1[2]', #148 ) ;
#203 = EDGE_LOOP ( 'NONE', ( #141 ) ) ;
ENDSEC;
END-ISO-10303-21;
