ISO-10303-21;
HEADER;
FILE_DESCRIPTION (( 'STEP AP203' ),
    '1' );
FILE_NAME ('977800.step',
    '2021-11-15T08:49:01',
    ( '' ),
    ( '' ),
    'SwSTEP 2.0',
    'SolidWorks 2019',
    '' );
FILE_SCHEMA (( 'CONFIG_CONTROL_DESIGN' ));
ENDSEC;

DATA;
#1 = AXIS2_PLACEMENT_3D ( 'NONE', #193, #148, #68 ) ;
#2 = PERSON_AND_ORGANIZATION_ROLE ( 'design_supplier' ) ;
#3 = PRODUCT_DEFINITION_SHAPE ( 'NONE', 'NONE',  #190 ) ;
#4 = DATE_TIME_ROLE ( 'classification_date' ) ;
#5 = ADVANCED_BREP_SHAPE_REPRESENTATION ( '977800', ( #71, #73, #77 ), #10 ) ;
#6 = DATE_AND_TIME ( #141, #50 ) ;
#7 = DIRECTION ( 'NONE',  ( -3.491481338843133355E-15, 1.224646799147353207E-16, -1.000000000000000000 ) ) ;
#8 = APPLICATION_PROTOCOL_DEFINITION ( 'international standard', 'config_control_design', 1994, #101 ) ;
#9 = CARTESIAN_POINT ( 'NONE',  ( 0.0000000000000000000, 2.500000000000000000, 0.0000000000000000000 ) ) ;
#10 =( GEOMETRIC_REPRESENTATION_CONTEXT ( 3 ) GLOBAL_UNCERTAINTY_ASSIGNED_CONTEXT ( ( #12 ) ) GLOBAL_UNIT_ASSIGNED_CONTEXT ( ( #163, #139, #111 ) ) REPRESENTATION_CONTEXT ( 'NONE', 'WORKASPACE' ) );
#11 = AXIS2_PLACEMENT_3D ( 'NONE', #169, #97, #13 ) ;
#12 = UNCERTAINTY_MEASURE_WITH_UNIT (LENGTH_MEASURE( 1.000000000000000082E-05 ), #163, 'distance_accuracy_value', 'NONE');
#13 = DIRECTION ( 'NONE',  ( 0.0000000000000000000, 1.000000000000000000, 0.0000000000000000000 ) ) ;
#14 = CARTESIAN_POINT ( 'NONE',  ( 1.745740669421566678E-14, 1.874699728327321462E-32, 5.000000000000000000 ) ) ;
#15 = FACE_OUTER_BOUND ( 'NONE', #164, .T. ) ;
#16 = CC_DESIGN_APPROVAL ( #38, ( #72 ) ) ;
#17 = ADVANCED_FACE ( 'NONE', ( #166 ), #94, .T. ) ;
#18 = ORIENTED_EDGE ( 'NONE', *, *, #81, .F. ) ;
#19 = APPROVAL_STATUS ( 'not_yet_approved' ) ;
#20 = ORIENTED_EDGE ( 'NONE', *, *, #149, .F. ) ;
#21 = DIRECTION ( 'NONE',  ( 1.000000000000000000, 0.0000000000000000000, 0.0000000000000000000 ) ) ;
#22 = AXIS2_PLACEMENT_3D ( 'NONE', #187, #48, #80 ) ;
#23 = CALENDAR_DATE ( 2021, 15, 11 ) ;
#24 = FACE_OUTER_BOUND ( 'NONE', #183, .T. ) ;
#25 = AXIS2_PLACEMENT_3D ( 'NONE', #167, #124, #29 ) ;
#26 = EDGE_CURVE ( 'NONE', #177, #177, #134, .T. ) ;
#27 = EDGE_LOOP ( 'NONE', ( #125 ) ) ;
#28 = EDGE_LOOP ( 'NONE', ( #18 ) ) ;
#29 = DIRECTION ( 'NONE',  ( 0.0000000000000000000, 1.000000000000000000, 0.0000000000000000000 ) ) ;
#30 = CC_DESIGN_PERSON_AND_ORGANIZATION_ASSIGNMENT ( #100, #84, ( #179 ) ) ;
#31 = EDGE_LOOP ( 'NONE', ( #20 ) ) ;
#32 = DIRECTION ( 'NONE',  ( 0.0000000000000000000, 0.0000000000000000000, 1.000000000000000000 ) ) ;
#33 = EDGE_LOOP ( 'NONE', ( #150 ) ) ;
#34 = APPROVAL_DATE_TIME ( #176, #38 ) ;
#35 = VERTEX_POINT ( 'NONE', #52 ) ;
#36 = COORDINATED_UNIVERSAL_TIME_OFFSET ( 1, 0, .AHEAD. ) ;
#37 = COORDINATED_UNIVERSAL_TIME_OFFSET ( 1, 0, .AHEAD. ) ;
#38 = APPROVAL ( #170, 'UNSPECIFIED' ) ;
#39 = CC_DESIGN_SECURITY_CLASSIFICATION ( #179, ( #72 ) ) ;
#40 = CARTESIAN_POINT ( 'NONE',  ( 1.728283262727351074E-13, -6.062001655779398511E-15, 49.50000000000000000 ) ) ;
#41 = CIRCLE ( 'NONE', #198, 2.500000000000000000 ) ;
#42 = FACE_OUTER_BOUND ( 'NONE', #28, .T. ) ;
#43 = DIRECTION ( 'NONE',  ( 3.491481338843133355E-15, -1.224646799147353207E-16, 1.000000000000000000 ) ) ;
#44 = ORIENTED_EDGE ( 'NONE', *, *, #26, .F. ) ;
#45 = FACE_OUTER_BOUND ( 'NONE', #31, .T. ) ;
#46 = AXIS2_PLACEMENT_3D ( 'NONE', #155, #123, #151 ) ;
#47 = PERSON_AND_ORGANIZATION ( #49, #196 ) ;
#48 = DIRECTION ( 'NONE',  ( -3.491481338843133355E-15, 1.224646799147353207E-16, -1.000000000000000000 ) ) ;
#49 = PERSON ( 'UNSPECIFIED', 'UNSPECIFIED', 'UNSPECIFIED', ('UNSPECIFIED'), ('UNSPECIFIED'), ('UNSPECIFIED') ) ;
#50 = LOCAL_TIME ( 9, 49, 1.000000000000000000, #96 ) ;
#51 = APPROVAL_DATE_TIME ( #192, #197 ) ;
#52 = CARTESIAN_POINT ( 'NONE',  ( 1.745740669421566678E-14, 2.499999999999999556, 5.000000000000000000 ) ) ;
#53 = AXIS2_PLACEMENT_3D ( 'NONE', #144, #130, #132 ) ;
#54 = ADVANCED_FACE ( 'NONE', ( #45 ), #112, .T. ) ;
#55 = DIRECTION ( 'NONE',  ( -3.491481338843133355E-15, 1.224646799147353207E-16, -1.000000000000000000 ) ) ;
#56 = DIRECTION ( 'NONE',  ( 3.491481338843133355E-15, -1.224646799147353207E-16, 1.000000000000000000 ) ) ;
#57 = CC_DESIGN_PERSON_AND_ORGANIZATION_ASSIGNMENT ( #146, #127, ( #116 ) ) ;
#58 = CLOSED_SHELL ( 'NONE', ( #17, #104, #54 ) ) ;
#59 = DIRECTION ( 'NONE',  ( -3.491481338843133355E-15, 1.224646799147353207E-16, -1.000000000000000000 ) ) ;
#60 = EDGE_LOOP ( 'NONE', ( #140 ) ) ;
#61 = MECHANICAL_CONTEXT ( 'NONE', #101, 'mechanical' ) ;
#62 = AXIS2_PLACEMENT_3D ( 'NONE', #14, #43, #202 ) ;
#63 = EDGE_CURVE ( 'NONE', #35, #35, #74, .T. ) ;
#64 = CARTESIAN_POINT ( 'NONE',  ( 1.745740669421566678E-14, 2.499999999999999556, 5.000000000000000000 ) ) ;
#65 = PERSON_AND_ORGANIZATION ( #49, #196 ) ;
#66 = CALENDAR_DATE ( 2021, 15, 11 ) ;
#67 = ADVANCED_FACE ( 'NONE', ( #76 ), #182, .F. ) ;
#68 = DIRECTION ( 'NONE',  ( 0.0000000000000000000, 1.000000000000000000, 0.0000000000000000000 ) ) ;
#69 = AXIS2_PLACEMENT_3D ( 'NONE', #200, #56, #93 ) ;
#70 = DATE_TIME_ROLE ( 'creation_date' ) ;
#71 = MANIFOLD_SOLID_BREP ( 'Corps-Déplacer/Copier1[1]', #165 ) ;
#72 = PRODUCT_DEFINITION_FORMATION_WITH_SPECIFIED_SOURCE ( 'ANY', '', #116, .NOT_KNOWN. ) ;
#73 = MANIFOLD_SOLID_BREP ( 'Corps-Déplacer/Copier1[2]', #58 ) ;
#74 = CIRCLE ( 'NONE', #11, 2.500000000000000000 ) ;
#75 = FACE_OUTER_BOUND ( 'NONE', #108, .T. ) ;
#76 = FACE_OUTER_BOUND ( 'NONE', #27, .T. ) ;
#77 = AXIS2_PLACEMENT_3D ( 'NONE', #188, #32, #21 ) ;
#78 = CYLINDRICAL_SURFACE ( 'NONE', #53, 2.500000000000000000 ) ;
#79 = CARTESIAN_POINT ( 'NONE',  ( -1.068957861474239564E-30, 3.749399456654644020E-32, -3.061616997868383141E-16 ) ) ;
#80 = DIRECTION ( 'NONE',  ( 4.275831445896958607E-31, 1.000000000000000000, 1.224646799147353207E-16 ) ) ;
#81 = EDGE_CURVE ( 'NONE', #178, #178, #154, .T. ) ;
#82 = PERSON_AND_ORGANIZATION_ROLE ( 'creator' ) ;
#83 = AXIS2_PLACEMENT_3D ( 'NONE', #40, #59, #109 ) ;
#84 = PERSON_AND_ORGANIZATION_ROLE ( 'classification_officer' ) ;
#85 = COORDINATED_UNIVERSAL_TIME_OFFSET ( 1, 0, .AHEAD. ) ;
#86 = CYLINDRICAL_SURFACE ( 'NONE', #22, 2.500000000000000000 ) ;
#87 = CIRCLE ( 'NONE', #1, 2.000000000000000000 ) ;
#88 = CONICAL_SURFACE ( 'NONE', #25, 2.500000000000000000, 0.7853981633974479459 ) ;
#89 = PRODUCT_RELATED_PRODUCT_CATEGORY ( 'detail', '', ( #116 ) ) ;
#90 = CC_DESIGN_APPROVAL ( #180, ( #190 ) ) ;
#91 = EDGE_LOOP ( 'NONE', ( #168 ) ) ;
#92 = ADVANCED_FACE ( 'NONE', ( #75 ), #137, .F. ) ;
#93 = DIRECTION ( 'NONE',  ( -4.275831445896958607E-31, -1.000000000000000000, -1.224646799147353207E-16 ) ) ;
#94 = PLANE ( 'NONE',  #46 ) ;
#95 = ADVANCED_FACE ( 'NONE', ( #181, #42 ), #88, .T. ) ;
#96 = COORDINATED_UNIVERSAL_TIME_OFFSET ( 1, 0, .AHEAD. ) ;
#97 = DIRECTION ( 'NONE',  ( -3.491481338843133355E-15, 1.224646799147353207E-16, -1.000000000000000000 ) ) ;
#98 = APPROVAL_ROLE ( '' ) ;
#99 = PERSON_AND_ORGANIZATION ( #49, #196 ) ;
#100 = PERSON_AND_ORGANIZATION ( #49, #196 ) ;
#101 = APPLICATION_CONTEXT ( 'configuration controlled 3d designs of mechanical parts and assemblies' ) ;
#102 = CARTESIAN_POINT ( 'NONE',  ( 1.728283262727351074E-13, 2.499999999999993783, 49.50000000000000000 ) ) ;
#103 = LOCAL_TIME ( 9, 49, 1.000000000000000000, #85 ) ;
#104 = ADVANCED_FACE ( 'NONE', ( #153, #15 ), #78, .T. ) ;
#105 = LOCAL_TIME ( 9, 49, 1.000000000000000000, #36 ) ;
#106 = EDGE_LOOP ( 'NONE', ( #135 ) ) ;
#107 = LOCAL_TIME ( 9, 49, 1.000000000000000000, #37 ) ;
#108 = EDGE_LOOP ( 'NONE', ( #203 ) ) ;
#109 = DIRECTION ( 'NONE',  ( 0.0000000000000000000, 1.000000000000000000, 0.0000000000000000000 ) ) ;
#110 = ORIENTED_EDGE ( 'NONE', *, *, #81, .T. ) ;
#111 =( NAMED_UNIT ( * ) SI_UNIT ( $, .STERADIAN. ) SOLID_ANGLE_UNIT ( ) );
#112 = PLANE ( 'NONE',  #62 ) ;
#113 = DATE_AND_TIME ( #129, #105 ) ;
#114 = VERTEX_POINT ( 'NONE', #160 ) ;
#115 = PERSON_AND_ORGANIZATION ( #49, #196 ) ;
#116 = PRODUCT ( '977800', '977800', '', ( #61 ) ) ;
#117 = APPROVAL_ROLE ( '' ) ;
#118 = SHAPE_DEFINITION_REPRESENTATION ( #3, #5 ) ;
#119 = AXIS2_PLACEMENT_3D ( 'NONE', #79, #199, #184 ) ;
#120 = AXIS2_PLACEMENT_3D ( 'NONE', #157, #55, #121 ) ;
#121 = DIRECTION ( 'NONE',  ( 4.275831445896958607E-31, 1.000000000000000000, 1.224646799147353207E-16 ) ) ;
#122 = CC_DESIGN_PERSON_AND_ORGANIZATION_ASSIGNMENT ( #159, #82, ( #72 ) ) ;
#123 = DIRECTION ( 'NONE',  ( -3.491481338843133355E-15, 1.224646799147353207E-16, -1.000000000000000000 ) ) ;
#124 = DIRECTION ( 'NONE',  ( -3.491481338843133355E-15, 1.224646799147353207E-16, -1.000000000000000000 ) ) ;
#125 = ORIENTED_EDGE ( 'NONE', *, *, #175, .F. ) ;
#126 = APPROVAL_PERSON_ORGANIZATION ( #65, #197, #117 ) ;
#127 = PERSON_AND_ORGANIZATION_ROLE ( 'design_owner' ) ;
#128 = SECURITY_CLASSIFICATION_LEVEL ( 'unclassified' ) ;
#129 = CALENDAR_DATE ( 2021, 15, 11 ) ;
#130 = DIRECTION ( 'NONE',  ( -3.491481338843133355E-15, 1.224646799147353207E-16, -1.000000000000000000 ) ) ;
#131 = CALENDAR_DATE ( 2021, 15, 11 ) ;
#132 = DIRECTION ( 'NONE',  ( 4.275831445896958607E-31, 1.000000000000000000, 1.224646799147353207E-16 ) ) ;
#133 = CC_DESIGN_APPROVAL ( #197, ( #179 ) ) ;
#134 = CIRCLE ( 'NONE', #119, 2.500000000000000000 ) ;
#135 = ORIENTED_EDGE ( 'NONE', *, *, #149, .T. ) ;
#136 = ADVANCED_FACE ( 'NONE', ( #24, #174 ), #86, .T. ) ;
#137 = PLANE ( 'NONE',  #69 ) ;
#138 = CC_DESIGN_DATE_AND_TIME_ASSIGNMENT ( #113, #70, ( #190 ) ) ;
#139 =( NAMED_UNIT ( * ) PLANE_ANGLE_UNIT ( ) SI_UNIT ( $, .RADIAN. ) );
#140 = ORIENTED_EDGE ( 'NONE', *, *, #175, .T. ) ;
#141 = CALENDAR_DATE ( 2021, 15, 11 ) ;
#142 = VERTEX_POINT ( 'NONE', #64 ) ;
#143 = PERSON_AND_ORGANIZATION ( #49, #196 ) ;
#144 = CARTESIAN_POINT ( 'NONE',  ( 0.0000000000000000000, 0.0000000000000000000, 0.0000000000000000000 ) ) ;
#145 = DATE_AND_TIME ( #131, #103 ) ;
#146 = PERSON_AND_ORGANIZATION ( #49, #196 ) ;
#147 = CARTESIAN_POINT ( 'NONE',  ( 1.745740669421566678E-14, -6.123233995736766282E-16, 5.000000000000000000 ) ) ;
#148 = DIRECTION ( 'NONE',  ( -3.491481338843133355E-15, 1.224646799147353207E-16, -1.000000000000000000 ) ) ;
#149 = EDGE_CURVE ( 'NONE', #142, #142, #41, .T. ) ;
#150 = ORIENTED_EDGE ( 'NONE', *, *, #26, .T. ) ;
#151 = DIRECTION ( 'NONE',  ( 4.275831445896958607E-31, 1.000000000000000000, 1.224646799147353207E-16 ) ) ;
#152 = CC_DESIGN_PERSON_AND_ORGANIZATION_ASSIGNMENT ( #143, #2, ( #72 ) ) ;
#153 = FACE_OUTER_BOUND ( 'NONE', #106, .T. ) ;
#154 = CIRCLE ( 'NONE', #83, 2.500000000000000000 ) ;
#155 = CARTESIAN_POINT ( 'NONE',  ( -5.344789307371197820E-31, 1.874699728327322010E-32, -1.530808498934191571E-16 ) ) ;
#156 = APPROVAL_ROLE ( '' ) ;
#157 = CARTESIAN_POINT ( 'NONE',  ( 1.745740669421566678E-13, 1.499759782661848302E-32, 50.00000000000000000 ) ) ;
#158 = APPLICATION_CONTEXT ( 'configuration controlled 3d designs of mechanical parts and assemblies' ) ;
#159 = PERSON_AND_ORGANIZATION ( #49, #196 ) ;
#160 = CARTESIAN_POINT ( 'NONE',  ( 1.745740669421566678E-13, 1.999999999999994005, 50.00000000000000000 ) ) ;
#161 = APPROVAL_DATE_TIME ( #6, #180 ) ;
#162 = PERSON_AND_ORGANIZATION_ROLE ( 'creator' ) ;
#163 =( LENGTH_UNIT ( ) NAMED_UNIT ( * ) SI_UNIT ( .MILLI., .METRE. ) );
#164 = EDGE_LOOP ( 'NONE', ( #44 ) ) ;
#165 = CLOSED_SHELL ( 'NONE', ( #92, #136, #95, #67 ) ) ;
#166 = FACE_OUTER_BOUND ( 'NONE', #33, .T. ) ;
#167 = CARTESIAN_POINT ( 'NONE',  ( 1.728283262727351074E-13, -6.062001655779398511E-15, 49.50000000000000000 ) ) ;
#168 = ORIENTED_EDGE ( 'NONE', *, *, #63, .F. ) ;
#169 = CARTESIAN_POINT ( 'NONE',  ( 1.745740669421566678E-14, -6.123233995736766282E-16, 5.000000000000000000 ) ) ;
#170 = APPROVAL_STATUS ( 'not_yet_approved' ) ;
#171 = APPLICATION_PROTOCOL_DEFINITION ( 'international standard', 'config_control_design', 1994, #158 ) ;
#172 = APPROVAL_PERSON_ORGANIZATION ( #99, #38, #98 ) ;
#173 = COORDINATED_UNIVERSAL_TIME_OFFSET ( 1, 0, .AHEAD. ) ;
#174 = FACE_OUTER_BOUND ( 'NONE', #91, .T. ) ;
#175 = EDGE_CURVE ( 'NONE', #114, #114, #87, .T. ) ;
#176 = DATE_AND_TIME ( #23, #185 ) ;
#177 = VERTEX_POINT ( 'NONE', #9 ) ;
#178 = VERTEX_POINT ( 'NONE', #102 ) ;
#179 = SECURITY_CLASSIFICATION ( '', '', #128 ) ;
#180 = APPROVAL ( #19, 'UNSPECIFIED' ) ;
#181 = FACE_BOUND ( 'NONE', #60, .T. ) ;
#182 = PLANE ( 'NONE',  #120 ) ;
#183 = EDGE_LOOP ( 'NONE', ( #110 ) ) ;
#184 = DIRECTION ( 'NONE',  ( 4.275831445896958607E-31, 1.000000000000000000, 1.224646799147353207E-16 ) ) ;
#185 = LOCAL_TIME ( 9, 49, 1.000000000000000000, #173 ) ;
#186 = CC_DESIGN_DATE_AND_TIME_ASSIGNMENT ( #145, #4, ( #179 ) ) ;
#187 = CARTESIAN_POINT ( 'NONE',  ( 0.0000000000000000000, 0.0000000000000000000, 0.0000000000000000000 ) ) ;
#188 = CARTESIAN_POINT ( 'NONE',  ( 0.0000000000000000000, 0.0000000000000000000, 0.0000000000000000000 ) ) ;
#189 = APPROVAL_STATUS ( 'not_yet_approved' ) ;
#190 = PRODUCT_DEFINITION ( 'UNKNOWN', '', #72, #201 ) ;
#191 = APPROVAL_PERSON_ORGANIZATION ( #115, #180, #156 ) ;
#192 = DATE_AND_TIME ( #66, #107 ) ;
#193 = CARTESIAN_POINT ( 'NONE',  ( 1.745740669421566678E-13, -6.123233995736766085E-15, 50.00000000000000000 ) ) ;
#194 = DIRECTION ( 'NONE',  ( 0.0000000000000000000, 1.000000000000000000, 0.0000000000000000000 ) ) ;
#195 = CC_DESIGN_PERSON_AND_ORGANIZATION_ASSIGNMENT ( #47, #162, ( #190 ) ) ;
#196 = ORGANIZATION ( 'UNSPECIFIED', 'UNSPECIFIED', '' ) ;
#197 = APPROVAL ( #189, 'UNSPECIFIED' ) ;
#198 = AXIS2_PLACEMENT_3D ( 'NONE', #147, #7, #194 ) ;
#199 = DIRECTION ( 'NONE',  ( -3.491481338843133355E-15, 1.224646799147353207E-16, -1.000000000000000000 ) ) ;
#200 = CARTESIAN_POINT ( 'NONE',  ( 1.745740669421566678E-14, 1.874699728327321462E-32, 5.000000000000000000 ) ) ;
#201 = DESIGN_CONTEXT ( 'detailed design', #158, 'design' ) ;
#202 = DIRECTION ( 'NONE',  ( -4.275831445896958607E-31, -1.000000000000000000, -1.224646799147353207E-16 ) ) ;
#203 = ORIENTED_EDGE ( 'NONE', *, *, #63, .T. ) ;
ENDSEC;
END-ISO-10303-21;
