ISO-10303-21;
HEADER;
FILE_DESCRIPTION (( 'STEP AP203' ),
    '1' );
FILE_NAME ('977799.step',
    '2021-11-15T08:49:01',
    ( '' ),
    ( '' ),
    'SwSTEP 2.0',
    'SolidWorks 2019',
    '' );
FILE_SCHEMA (( 'CONFIG_CONTROL_DESIGN' ));
ENDSEC;

DATA;
#1 = DIRECTION ( 'NONE',  ( -3.491481338843133355E-15, 1.224646799147353454E-16, -1.000000000000000000 ) ) ;
#2 = CLOSED_SHELL ( 'NONE', ( #27, #75, #87, #78 ) ) ;
#3 =( GEOMETRIC_REPRESENTATION_CONTEXT ( 3 ) GLOBAL_UNCERTAINTY_ASSIGNED_CONTEXT ( ( #109 ) ) GLOBAL_UNIT_ASSIGNED_CONTEXT ( ( #19, #107, #145 ) ) REPRESENTATION_CONTEXT ( 'NONE', 'WORKASPACE' ) );
#4 = PERSON_AND_ORGANIZATION ( #117, #110 ) ;
#5 = DIRECTION ( 'NONE',  ( 4.275831445896959482E-31, 1.000000000000000000, 1.224646799147353454E-16 ) ) ;
#6 = DATE_AND_TIME ( #177, #29 ) ;
#7 = APPLICATION_CONTEXT ( 'configuration controlled 3d designs of mechanical parts and assemblies' ) ;
#8 = PERSON_AND_ORGANIZATION ( #117, #110 ) ;
#9 = AXIS2_PLACEMENT_3D ( 'NONE', #93, #90, #157 ) ;
#10 = APPLICATION_PROTOCOL_DEFINITION ( 'international standard', 'config_control_design', 1994, #97 ) ;
#11 = COORDINATED_UNIVERSAL_TIME_OFFSET ( 1, 0, .AHEAD. ) ;
#12 = ORIENTED_EDGE ( 'NONE', *, *, #54, .F. ) ;
#13 = ORIENTED_EDGE ( 'NONE', *, *, #202, .F. ) ;
#14 = EDGE_LOOP ( 'NONE', ( #74 ) ) ;
#15 = LOCAL_TIME ( 9, 49, 1.000000000000000000, #83 ) ;
#16 = EDGE_LOOP ( 'NONE', ( #12 ) ) ;
#17 = DIRECTION ( 'NONE',  ( 3.491481338843133355E-15, -1.224646799147353454E-16, 1.000000000000000000 ) ) ;
#18 = CARTESIAN_POINT ( 'NONE',  ( 1.396592535537253342E-14, 1.999999999999999556, 4.000000000000000000 ) ) ;
#19 =( LENGTH_UNIT ( ) NAMED_UNIT ( * ) SI_UNIT ( .MILLI., .METRE. ) );
#20 = CC_DESIGN_PERSON_AND_ORGANIZATION_ASSIGNMENT ( #8, #67, ( #36 ) ) ;
#21 = CIRCLE ( 'NONE', #64, 1.600000000000000311 ) ;
#22 = CALENDAR_DATE ( 2021, 15, 11 ) ;
#23 = PERSON_AND_ORGANIZATION_ROLE ( 'creator' ) ;
#24 = EDGE_LOOP ( 'NONE', ( #13 ) ) ;
#25 = LOCAL_TIME ( 9, 49, 1.000000000000000000, #11 ) ;
#26 = DIRECTION ( 'NONE',  ( 0.0000000000000000000, 1.000000000000000000, 0.0000000000000000000 ) ) ;
#27 = ADVANCED_FACE ( 'NONE', ( #136 ), #193, .F. ) ;
#28 = FACE_OUTER_BOUND ( 'NONE', #169, .T. ) ;
#29 = LOCAL_TIME ( 9, 49, 1.000000000000000000, #129 ) ;
#30 = PLANE ( 'NONE',  #9 ) ;
#31 = CARTESIAN_POINT ( 'NONE',  ( 1.466422162314116009E-13, 1.599999999999994982, 42.00000000000000000 ) ) ;
#32 = FACE_OUTER_BOUND ( 'NONE', #181, .T. ) ;
#33 = MECHANICAL_CONTEXT ( 'NONE', #7, 'mechanical' ) ;
#34 = AXIS2_PLACEMENT_3D ( 'NONE', #40, #144, #176 ) ;
#35 = DIRECTION ( 'NONE',  ( 0.0000000000000000000, 0.0000000000000000000, 1.000000000000000000 ) ) ;
#36 = PRODUCT_DEFINITION ( 'UNKNOWN', '', #57, #130 ) ;
#37 = APPROVAL_ROLE ( '' ) ;
#38 = EDGE_CURVE ( 'NONE', #124, #124, #137, .T. ) ;
#39 = LOCAL_TIME ( 9, 49, 1.000000000000000000, #132 ) ;
#40 = CARTESIAN_POINT ( 'NONE',  ( 1.396592535537253342E-14, 1.499759782661857608E-32, 4.000000000000000000 ) ) ;
#41 = ORIENTED_EDGE ( 'NONE', *, *, #94, .T. ) ;
#42 = DATE_TIME_ROLE ( 'classification_date' ) ;
#43 = CC_DESIGN_APPROVAL ( #119, ( #57 ) ) ;
#44 = CARTESIAN_POINT ( 'NONE',  ( 1.396592535537253342E-14, 1.499759782661857608E-32, 4.000000000000000000 ) ) ;
#45 = CARTESIAN_POINT ( 'NONE',  ( 1.396592535537253342E-14, -4.898587196589413815E-16, 4.000000000000000000 ) ) ;
#46 = AXIS2_PLACEMENT_3D ( 'NONE', #189, #89, #5 ) ;
#47 = VERTEX_POINT ( 'NONE', #31 ) ;
#48 = ADVANCED_BREP_SHAPE_REPRESENTATION ( '977799', ( #199, #194, #165 ), #3 ) ;
#49 = CYLINDRICAL_SURFACE ( 'NONE', #186, 2.000000000000000000 ) ;
#50 = ADVANCED_FACE ( 'NONE', ( #32 ), #79, .T. ) ;
#51 = PERSON_AND_ORGANIZATION_ROLE ( 'design_owner' ) ;
#52 = CARTESIAN_POINT ( 'NONE',  ( 1.396592535537253342E-14, 1.999999999999999556, 4.000000000000000000 ) ) ;
#53 = CC_DESIGN_SECURITY_CLASSIFICATION ( #131, ( #57 ) ) ;
#54 = EDGE_CURVE ( 'NONE', #154, #154, #133, .T. ) ;
#55 = CC_DESIGN_PERSON_AND_ORGANIZATION_ASSIGNMENT ( #125, #51, ( #195 ) ) ;
#56 = ORIENTED_EDGE ( 'NONE', *, *, #58, .T. ) ;
#57 = PRODUCT_DEFINITION_FORMATION_WITH_SPECIFIED_SOURCE ( 'ANY', '', #195, .NOT_KNOWN. ) ;
#58 = EDGE_CURVE ( 'NONE', #118, #118, #182, .T. ) ;
#59 = APPROVAL_STATUS ( 'not_yet_approved' ) ;
#60 = ADVANCED_FACE ( 'NONE', ( #121, #200 ), #175, .T. ) ;
#61 = CARTESIAN_POINT ( 'NONE',  ( 1.452456236958743728E-13, 1.999999999999995337, 41.60000000000000853 ) ) ;
#62 = FACE_OUTER_BOUND ( 'NONE', #24, .T. ) ;
#63 = DIRECTION ( 'NONE',  ( -3.491481338843133355E-15, 1.224646799147353454E-16, -1.000000000000000000 ) ) ;
#64 = AXIS2_PLACEMENT_3D ( 'NONE', #203, #66, #26 ) ;
#65 = DIRECTION ( 'NONE',  ( 4.275831445896959482E-31, 1.000000000000000000, 1.224646799147353454E-16 ) ) ;
#66 = DIRECTION ( 'NONE',  ( -3.491481338843133355E-15, 1.224646799147353454E-16, -1.000000000000000000 ) ) ;
#67 = PERSON_AND_ORGANIZATION_ROLE ( 'creator' ) ;
#68 = APPROVAL_ROLE ( '' ) ;
#69 = DATE_AND_TIME ( #81, #25 ) ;
#70 = ADVANCED_FACE ( 'NONE', ( #155 ), #30, .T. ) ;
#71 = PERSON_AND_ORGANIZATION ( #117, #110 ) ;
#72 = AXIS2_PLACEMENT_3D ( 'NONE', #88, #63, #185 ) ;
#73 = CALENDAR_DATE ( 2021, 15, 11 ) ;
#74 = ORIENTED_EDGE ( 'NONE', *, *, #54, .T. ) ;
#75 = ADVANCED_FACE ( 'NONE', ( #187, #62 ), #49, .T. ) ;
#76 = DIRECTION ( 'NONE',  ( -3.491481338843133355E-15, 1.224646799147353454E-16, -1.000000000000000000 ) ) ;
#77 = CARTESIAN_POINT ( 'NONE',  ( 1.452456236958743728E-13, -5.094530684452991472E-15, 41.60000000000000853 ) ) ;
#78 = ADVANCED_FACE ( 'NONE', ( #28 ), #105, .F. ) ;
#79 = PLANE ( 'NONE',  #114 ) ;
#80 = CARTESIAN_POINT ( 'NONE',  ( 1.452456236958743728E-13, -5.094530684452991472E-15, 41.60000000000000853 ) ) ;
#81 = CALENDAR_DATE ( 2021, 15, 11 ) ;
#82 = AXIS2_PLACEMENT_3D ( 'NONE', #80, #184, #143 ) ;
#83 = COORDINATED_UNIVERSAL_TIME_OFFSET ( 1, 0, .AHEAD. ) ;
#84 = APPROVAL_PERSON_ORGANIZATION ( #111, #127, #166 ) ;
#85 = ORIENTED_EDGE ( 'NONE', *, *, #94, .F. ) ;
#86 = ORIENTED_EDGE ( 'NONE', *, *, #58, .F. ) ;
#87 = ADVANCED_FACE ( 'NONE', ( #159, #158 ), #149, .T. ) ;
#88 = CARTESIAN_POINT ( 'NONE',  ( 1.396592535537253342E-14, -4.898587196589413815E-16, 4.000000000000000000 ) ) ;
#89 = DIRECTION ( 'NONE',  ( -3.491481338843133355E-15, 1.224646799147353454E-16, -1.000000000000000000 ) ) ;
#90 = DIRECTION ( 'NONE',  ( -3.491481338843133355E-15, 1.224646799147353454E-16, -1.000000000000000000 ) ) ;
#91 = PRODUCT_RELATED_PRODUCT_CATEGORY ( 'detail', '', ( #195 ) ) ;
#92 = VERTEX_POINT ( 'NONE', #18 ) ;
#93 = CARTESIAN_POINT ( 'NONE',  ( -4.275831445896958607E-31, 1.499759782661858155E-32, -1.224646799147353454E-16 ) ) ;
#94 = EDGE_CURVE ( 'NONE', #47, #47, #21, .T. ) ;
#95 = DATE_AND_TIME ( #148, #15 ) ;
#96 = CC_DESIGN_APPROVAL ( #127, ( #131 ) ) ;
#97 = APPLICATION_CONTEXT ( 'configuration controlled 3d designs of mechanical parts and assemblies' ) ;
#98 = CC_DESIGN_DATE_AND_TIME_ASSIGNMENT ( #69, #126, ( #36 ) ) ;
#99 = SHAPE_DEFINITION_REPRESENTATION ( #170, #48 ) ;
#100 = DATE_AND_TIME ( #73, #39 ) ;
#101 = ORIENTED_EDGE ( 'NONE', *, *, #38, .T. ) ;
#102 = DIRECTION ( 'NONE',  ( -4.275831445896959482E-31, -1.000000000000000000, -1.224646799147353454E-16 ) ) ;
#103 = CARTESIAN_POINT ( 'NONE',  ( -8.551662891793917213E-31, 2.999519565323716310E-32, -2.449293598294706907E-16 ) ) ;
#104 = DIRECTION ( 'NONE',  ( -3.491481338843133355E-15, 1.224646799147353454E-16, -1.000000000000000000 ) ) ;
#105 = PLANE ( 'NONE',  #46 ) ;
#106 = CARTESIAN_POINT ( 'NONE',  ( 1.710569414459005214E-46, 2.000000000000000000, 0.0000000000000000000 ) ) ;
#107 =( NAMED_UNIT ( * ) PLANE_ANGLE_UNIT ( ) SI_UNIT ( $, .RADIAN. ) );
#108 = CARTESIAN_POINT ( 'NONE',  ( 0.0000000000000000000, 0.0000000000000000000, 0.0000000000000000000 ) ) ;
#109 = UNCERTAINTY_MEASURE_WITH_UNIT (LENGTH_MEASURE( 1.000000000000000082E-05 ), #19, 'distance_accuracy_value', 'NONE');
#110 = ORGANIZATION ( 'UNSPECIFIED', 'UNSPECIFIED', '' ) ;
#111 = PERSON_AND_ORGANIZATION ( #117, #110 ) ;
#112 = EDGE_LOOP ( 'NONE', ( #86 ) ) ;
#113 = APPROVAL_DATE_TIME ( #180, #127 ) ;
#114 = AXIS2_PLACEMENT_3D ( 'NONE', #44, #17, #102 ) ;
#115 = AXIS2_PLACEMENT_3D ( 'NONE', #77, #104, #146 ) ;
#116 = SECURITY_CLASSIFICATION_LEVEL ( 'unclassified' ) ;
#117 = PERSON ( 'UNSPECIFIED', 'UNSPECIFIED', 'UNSPECIFIED', ('UNSPECIFIED'), ('UNSPECIFIED'), ('UNSPECIFIED') ) ;
#118 = VERTEX_POINT ( 'NONE', #61 ) ;
#119 = APPROVAL ( #178, 'UNSPECIFIED' ) ;
#120 = CARTESIAN_POINT ( 'NONE',  ( 0.0000000000000000000, 0.0000000000000000000, 0.0000000000000000000 ) ) ;
#121 = FACE_OUTER_BOUND ( 'NONE', #151, .T. ) ;
#122 = CIRCLE ( 'NONE', #72, 2.000000000000000000 ) ;
#123 = CARTESIAN_POINT ( 'NONE',  ( 0.0000000000000000000, 0.0000000000000000000, 0.0000000000000000000 ) ) ;
#124 = VERTEX_POINT ( 'NONE', #52 ) ;
#125 = PERSON_AND_ORGANIZATION ( #117, #110 ) ;
#126 = DATE_TIME_ROLE ( 'creation_date' ) ;
#127 = APPROVAL ( #59, 'UNSPECIFIED' ) ;
#128 = APPROVAL_DATE_TIME ( #6, #119 ) ;
#129 = COORDINATED_UNIVERSAL_TIME_OFFSET ( 1, 0, .AHEAD. ) ;
#130 = DESIGN_CONTEXT ( 'detailed design', #97, 'design' ) ;
#131 = SECURITY_CLASSIFICATION ( '', '', #116 ) ;
#132 = COORDINATED_UNIVERSAL_TIME_OFFSET ( 1, 0, .AHEAD. ) ;
#133 = CIRCLE ( 'NONE', #160, 2.000000000000000000 ) ;
#134 = PERSON_AND_ORGANIZATION_ROLE ( 'classification_officer' ) ;
#135 = PERSON_AND_ORGANIZATION ( #117, #110 ) ;
#136 = FACE_OUTER_BOUND ( 'NONE', #138, .T. ) ;
#137 = CIRCLE ( 'NONE', #156, 2.000000000000000000 ) ;
#138 = EDGE_LOOP ( 'NONE', ( #183 ) ) ;
#139 = APPROVAL ( #188, 'UNSPECIFIED' ) ;
#140 = ORIENTED_EDGE ( 'NONE', *, *, #38, .F. ) ;
#141 = DIRECTION ( 'NONE',  ( 4.275831445896959482E-31, 1.000000000000000000, 1.224646799147353454E-16 ) ) ;
#142 = DIRECTION ( 'NONE',  ( 0.0000000000000000000, 1.000000000000000000, 0.0000000000000000000 ) ) ;
#143 = DIRECTION ( 'NONE',  ( 0.0000000000000000000, 1.000000000000000000, 0.0000000000000000000 ) ) ;
#144 = DIRECTION ( 'NONE',  ( 3.491481338843133355E-15, -1.224646799147353454E-16, 1.000000000000000000 ) ) ;
#145 =( NAMED_UNIT ( * ) SI_UNIT ( $, .STERADIAN. ) SOLID_ANGLE_UNIT ( ) );
#146 = DIRECTION ( 'NONE',  ( 0.0000000000000000000, 1.000000000000000000, 0.0000000000000000000 ) ) ;
#147 = PERSON_AND_ORGANIZATION ( #117, #110 ) ;
#148 = CALENDAR_DATE ( 2021, 15, 11 ) ;
#149 = CONICAL_SURFACE ( 'NONE', #82, 2.000000000000000444, 0.7853981633974516097 ) ;
#150 = AXIS2_PLACEMENT_3D ( 'NONE', #123, #201, #174 ) ;
#151 = EDGE_LOOP ( 'NONE', ( #101 ) ) ;
#152 = CC_DESIGN_PERSON_AND_ORGANIZATION_ASSIGNMENT ( #71, #23, ( #57 ) ) ;
#153 = CC_DESIGN_APPROVAL ( #139, ( #36 ) ) ;
#154 = VERTEX_POINT ( 'NONE', #106 ) ;
#155 = FACE_OUTER_BOUND ( 'NONE', #14, .T. ) ;
#156 = AXIS2_PLACEMENT_3D ( 'NONE', #45, #1, #142 ) ;
#157 = DIRECTION ( 'NONE',  ( 4.275831445896959482E-31, 1.000000000000000000, 1.224646799147353454E-16 ) ) ;
#158 = FACE_OUTER_BOUND ( 'NONE', #112, .T. ) ;
#159 = FACE_BOUND ( 'NONE', #171, .T. ) ;
#160 = AXIS2_PLACEMENT_3D ( 'NONE', #103, #172, #65 ) ;
#161 = APPROVAL_DATE_TIME ( #95, #139 ) ;
#162 = DIRECTION ( 'NONE',  ( 1.000000000000000000, 0.0000000000000000000, 0.0000000000000000000 ) ) ;
#163 = CC_DESIGN_PERSON_AND_ORGANIZATION_ASSIGNMENT ( #135, #134, ( #131 ) ) ;
#164 = APPLICATION_PROTOCOL_DEFINITION ( 'international standard', 'config_control_design', 1994, #7 ) ;
#165 = AXIS2_PLACEMENT_3D ( 'NONE', #108, #35, #162 ) ;
#166 = APPROVAL_ROLE ( '' ) ;
#167 = EDGE_LOOP ( 'NONE', ( #56 ) ) ;
#168 = CC_DESIGN_DATE_AND_TIME_ASSIGNMENT ( #100, #42, ( #131 ) ) ;
#169 = EDGE_LOOP ( 'NONE', ( #85 ) ) ;
#170 = PRODUCT_DEFINITION_SHAPE ( 'NONE', 'NONE',  #36 ) ;
#171 = EDGE_LOOP ( 'NONE', ( #41 ) ) ;
#172 = DIRECTION ( 'NONE',  ( -3.491481338843133355E-15, 1.224646799147353454E-16, -1.000000000000000000 ) ) ;
#173 = LOCAL_TIME ( 9, 49, 1.000000000000000000, #192 ) ;
#174 = DIRECTION ( 'NONE',  ( 4.275831445896959482E-31, 1.000000000000000000, 1.224646799147353454E-16 ) ) ;
#175 = CYLINDRICAL_SURFACE ( 'NONE', #150, 2.000000000000000000 ) ;
#176 = DIRECTION ( 'NONE',  ( -4.275831445896959482E-31, -1.000000000000000000, -1.224646799147353454E-16 ) ) ;
#177 = CALENDAR_DATE ( 2021, 15, 11 ) ;
#178 = APPROVAL_STATUS ( 'not_yet_approved' ) ;
#179 = APPROVAL_PERSON_ORGANIZATION ( #147, #119, #37 ) ;
#180 = DATE_AND_TIME ( #22, #173 ) ;
#181 = EDGE_LOOP ( 'NONE', ( #140 ) ) ;
#182 = CIRCLE ( 'NONE', #115, 2.000000000000000444 ) ;
#183 = ORIENTED_EDGE ( 'NONE', *, *, #202, .T. ) ;
#184 = DIRECTION ( 'NONE',  ( -3.491481338843133355E-15, 1.224646799147353454E-16, -1.000000000000000000 ) ) ;
#185 = DIRECTION ( 'NONE',  ( 0.0000000000000000000, 1.000000000000000000, 0.0000000000000000000 ) ) ;
#186 = AXIS2_PLACEMENT_3D ( 'NONE', #120, #76, #141 ) ;
#187 = FACE_OUTER_BOUND ( 'NONE', #167, .T. ) ;
#188 = APPROVAL_STATUS ( 'not_yet_approved' ) ;
#189 = CARTESIAN_POINT ( 'NONE',  ( 1.466422162314116009E-13, 1.199807826129478970E-32, 42.00000000000000000 ) ) ;
#190 = CC_DESIGN_PERSON_AND_ORGANIZATION_ASSIGNMENT ( #197, #191, ( #57 ) ) ;
#191 = PERSON_AND_ORGANIZATION_ROLE ( 'design_supplier' ) ;
#192 = COORDINATED_UNIVERSAL_TIME_OFFSET ( 1, 0, .AHEAD. ) ;
#193 = PLANE ( 'NONE',  #34 ) ;
#194 = MANIFOLD_SOLID_BREP ( 'Corps-Déplacer/Copier1[2]', #196 ) ;
#195 = PRODUCT ( '977799', '977799', '', ( #33 ) ) ;
#196 = CLOSED_SHELL ( 'NONE', ( #70, #60, #50 ) ) ;
#197 = PERSON_AND_ORGANIZATION ( #117, #110 ) ;
#198 = APPROVAL_PERSON_ORGANIZATION ( #4, #139, #68 ) ;
#199 = MANIFOLD_SOLID_BREP ( 'Corps-Déplacer/Copier1[1]', #2 ) ;
#200 = FACE_OUTER_BOUND ( 'NONE', #16, .T. ) ;
#201 = DIRECTION ( 'NONE',  ( -3.491481338843133355E-15, 1.224646799147353454E-16, -1.000000000000000000 ) ) ;
#202 = EDGE_CURVE ( 'NONE', #92, #92, #122, .T. ) ;
#203 = CARTESIAN_POINT ( 'NONE',  ( 1.466422162314116009E-13, -5.143516556418884900E-15, 42.00000000000000000 ) ) ;
ENDSEC;
END-ISO-10303-21;
