ISO-10303-21;
HEADER;
FILE_DESCRIPTION (( 'STEP AP203' ),
    '1' );
FILE_NAME ('977798.step',
    '2021-11-15T08:49:00',
    ( '' ),
    ( '' ),
    'SwSTEP 2.0',
    'SolidWorks 2019',
    '' );
FILE_SCHEMA (( 'CONFIG_CONTROL_DESIGN' ));
ENDSEC;

DATA;
#1 = CARTESIAN_POINT ( 'NONE',  ( 1.316288464743861212E-13, 1.499999999999995337, 37.69999999999999574 ) ) ;
#2 = PLANE ( 'NONE',  #121 ) ;
#3 = CLOSED_SHELL ( 'NONE', ( #160, #62, #40, #58 ) ) ;
#4 = CARTESIAN_POINT ( 'NONE',  ( 1.047444401652940007E-14, -3.673940397442059868E-16, 3.000000000000000000 ) ) ;
#5 =( NAMED_UNIT ( * ) PLANE_ANGLE_UNIT ( ) SI_UNIT ( $, .RADIAN. ) );
#6 = DIRECTION ( 'NONE',  ( 0.0000000000000000000, 1.000000000000000000, 0.0000000000000000000 ) ) ;
#7 = PERSON_AND_ORGANIZATION ( #118, #57 ) ;
#8 = AXIS2_PLACEMENT_3D ( 'NONE', #51, #128, #11 ) ;
#9 = CARTESIAN_POINT ( 'NONE',  ( 0.0000000000000000000, 0.0000000000000000000, 0.0000000000000000000 ) ) ;
#10 = ADVANCED_FACE ( 'NONE', ( #27, #156 ), #52, .T. ) ;
#11 = DIRECTION ( 'NONE',  ( 4.275831445896958607E-31, 1.000000000000000000, 1.224646799147353207E-16 ) ) ;
#12 = ORIENTED_EDGE ( 'NONE', *, *, #47, .F. ) ;
#13 = DIRECTION ( 'NONE',  ( 4.275831445896959482E-31, 1.000000000000000000, 1.224646799147353207E-16 ) ) ;
#14 = PRODUCT_DEFINITION_SHAPE ( 'NONE', 'NONE',  #29 ) ;
#15 = DIRECTION ( 'NONE',  ( -4.275831445896958607E-31, -1.000000000000000000, -1.224646799147353207E-16 ) ) ;
#16 = CIRCLE ( 'NONE', #25, 1.500000000000000000 ) ;
#17 = EDGE_CURVE ( 'NONE', #110, #110, #39, .T. ) ;
#18 = CARTESIAN_POINT ( 'NONE',  ( 0.0000000000000000000, 0.0000000000000000000, 0.0000000000000000000 ) ) ;
#19 = ORIENTED_EDGE ( 'NONE', *, *, #174, .F. ) ;
#20 = DIRECTION ( 'NONE',  ( -3.491481338843133355E-15, 1.224646799147353207E-16, -1.000000000000000000 ) ) ;
#21 = DATE_TIME_ROLE ( 'creation_date' ) ;
#22 = FACE_OUTER_BOUND ( 'NONE', #113, .T. ) ;
#23 = CARTESIAN_POINT ( 'NONE',  ( 1.047444401652940007E-14, 1.499999999999999556, 3.000000000000000000 ) ) ;
#24 = FACE_OUTER_BOUND ( 'NONE', #180, .T. ) ;
#25 = AXIS2_PLACEMENT_3D ( 'NONE', #168, #80, #101 ) ;
#26 = DATE_AND_TIME ( #152, #181 ) ;
#27 = FACE_OUTER_BOUND ( 'NONE', #193, .T. ) ;
#28 = DIRECTION ( 'NONE',  ( 3.491481338843133355E-15, -1.224646799147353207E-16, 1.000000000000000000 ) ) ;
#29 = PRODUCT_DEFINITION ( 'UNKNOWN', '', #55, #96 ) ;
#30 = CC_DESIGN_APPROVAL ( #33, ( #29 ) ) ;
#31 = COORDINATED_UNIVERSAL_TIME_OFFSET ( 1, 0, .AHEAD. ) ;
#32 = PERSON_AND_ORGANIZATION ( #118, #57 ) ;
#33 = APPROVAL ( #103, 'UNSPECIFIED' ) ;
#34 = PERSON_AND_ORGANIZATION_ROLE ( 'design_supplier' ) ;
#35 = APPROVAL_DATE_TIME ( #46, #33 ) ;
#36 = FACE_OUTER_BOUND ( 'NONE', #59, .T. ) ;
#37 = EDGE_LOOP ( 'NONE', ( #202 ) ) ;
#38 = PRODUCT_RELATED_PRODUCT_CATEGORY ( 'detail', '', ( #71 ) ) ;
#39 = CIRCLE ( 'NONE', #45, 1.199999999999999956 ) ;
#40 = ADVANCED_FACE ( 'NONE', ( #198, #145 ), #87, .T. ) ;
#41 = CARTESIAN_POINT ( 'NONE',  ( 1.047444401652940007E-14, 1.124819836996392658E-32, 3.000000000000000000 ) ) ;
#42 = APPLICATION_CONTEXT ( 'configuration controlled 3d designs of mechanical parts and assemblies' ) ;
#43 = AXIS2_PLACEMENT_3D ( 'NONE', #18, #161, #190 ) ;
#44 =( LENGTH_UNIT ( ) NAMED_UNIT ( * ) SI_UNIT ( .MILLI., .METRE. ) );
#45 = AXIS2_PLACEMENT_3D ( 'NONE', #165, #109, #140 ) ;
#46 = DATE_AND_TIME ( #120, #111 ) ;
#47 = EDGE_CURVE ( 'NONE', #70, #70, #116, .T. ) ;
#48 = COORDINATED_UNIVERSAL_TIME_OFFSET ( 1, 0, .AHEAD. ) ;
#49 = LOCAL_TIME ( 9, 49, 0.0000000000000000000, #31 ) ;
#50 = PERSON_AND_ORGANIZATION_ROLE ( 'creator' ) ;
#51 = CARTESIAN_POINT ( 'NONE',  ( 1.326762908760390423E-13, 8.998558695971077224E-33, 38.00000000000000000 ) ) ;
#52 = CYLINDRICAL_SURFACE ( 'NONE', #172, 1.500000000000000000 ) ;
#53 = CARTESIAN_POINT ( 'NONE',  ( 0.0000000000000000000, 0.0000000000000000000, 0.0000000000000000000 ) ) ;
#54 = APPROVAL_DATE_TIME ( #26, #155 ) ;
#55 = PRODUCT_DEFINITION_FORMATION_WITH_SPECIFIED_SOURCE ( 'ANY', '', #71, .NOT_KNOWN. ) ;
#56 =( GEOMETRIC_REPRESENTATION_CONTEXT ( 3 ) GLOBAL_UNCERTAINTY_ASSIGNED_CONTEXT ( ( #67 ) ) GLOBAL_UNIT_ASSIGNED_CONTEXT ( ( #44, #5, #68 ) ) REPRESENTATION_CONTEXT ( 'NONE', 'WORKASPACE' ) );
#57 = ORGANIZATION ( 'UNSPECIFIED', 'UNSPECIFIED', '' ) ;
#58 = ADVANCED_FACE ( 'NONE', ( #22 ), #176, .F. ) ;
#59 = EDGE_LOOP ( 'NONE', ( #81 ) ) ;
#60 = PERSON_AND_ORGANIZATION ( #118, #57 ) ;
#61 = CC_DESIGN_APPROVAL ( #203, ( #55 ) ) ;
#62 = ADVANCED_FACE ( 'NONE', ( #24, #153 ), #115, .T. ) ;
#63 = AXIS2_PLACEMENT_3D ( 'NONE', #78, #189, #106 ) ;
#64 = APPLICATION_CONTEXT ( 'configuration controlled 3d designs of mechanical parts and assemblies' ) ;
#65 = APPROVAL_ROLE ( '' ) ;
#66 = DATE_AND_TIME ( #88, #102 ) ;
#67 = UNCERTAINTY_MEASURE_WITH_UNIT (LENGTH_MEASURE( 1.000000000000000082E-05 ), #44, 'distance_accuracy_value', 'NONE');
#68 =( NAMED_UNIT ( * ) SI_UNIT ( $, .STERADIAN. ) SOLID_ANGLE_UNIT ( ) );
#69 = AXIS2_PLACEMENT_3D ( 'NONE', #4, #123, #192 ) ;
#70 = VERTEX_POINT ( 'NONE', #148 ) ;
#71 = PRODUCT ( '977798', '977798', '', ( #177 ) ) ;
#72 = APPROVAL_STATUS ( 'not_yet_approved' ) ;
#73 = APPROVAL_PERSON_ORGANIZATION ( #139, #33, #65 ) ;
#74 = ORIENTED_EDGE ( 'NONE', *, *, #187, .F. ) ;
#75 = AXIS2_PLACEMENT_3D ( 'NONE', #41, #28, #15 ) ;
#76 = APPLICATION_PROTOCOL_DEFINITION ( 'international standard', 'config_control_design', 1994, #42 ) ;
#77 = APPROVAL_DATE_TIME ( #66, #203 ) ;
#78 = CARTESIAN_POINT ( 'NONE',  ( 1.316288464743861212E-13, -4.616918432785521081E-15, 37.69999999999999574 ) ) ;
#79 = VERTEX_POINT ( 'NONE', #92 ) ;
#80 = DIRECTION ( 'NONE',  ( -3.491481338843133355E-15, 1.224646799147353207E-16, -1.000000000000000000 ) ) ;
#81 = ORIENTED_EDGE ( 'NONE', *, *, #174, .T. ) ;
#82 = AXIS2_PLACEMENT_3D ( 'NONE', #114, #127, #6 ) ;
#83 = CC_DESIGN_PERSON_AND_ORGANIZATION_ASSIGNMENT ( #108, #50, ( #29 ) ) ;
#84 = APPROVAL_ROLE ( '' ) ;
#85 = CARTESIAN_POINT ( 'NONE',  ( -3.206873584422719393E-31, 1.124819836996393206E-32, -9.184850993605149670E-17 ) ) ;
#86 = CC_DESIGN_DATE_AND_TIME_ASSIGNMENT ( #124, #146, ( #154 ) ) ;
#87 = CONICAL_SURFACE ( 'NONE', #82, 1.499999999999999778, 0.7853981633974453924 ) ;
#88 = CALENDAR_DATE ( 2021, 15, 11 ) ;
#89 = APPLICATION_PROTOCOL_DEFINITION ( 'international standard', 'config_control_design', 1994, #64 ) ;
#90 = DIRECTION ( 'NONE',  ( 4.275831445896959482E-31, 1.000000000000000000, 1.224646799147353207E-16 ) ) ;
#91 = ADVANCED_FACE ( 'NONE', ( #36 ), #200, .T. ) ;
#92 = CARTESIAN_POINT ( 'NONE',  ( 0.0000000000000000000, 1.500000000000000000, 0.0000000000000000000 ) ) ;
#93 = EDGE_LOOP ( 'NONE', ( #12 ) ) ;
#94 = PERSON_AND_ORGANIZATION ( #118, #57 ) ;
#95 = DIRECTION ( 'NONE',  ( -3.491481338843133355E-15, 1.224646799147353207E-16, -1.000000000000000000 ) ) ;
#96 = DESIGN_CONTEXT ( 'detailed design', #42, 'design' ) ;
#97 = AXIS2_PLACEMENT_3D ( 'NONE', #142, #178, #90 ) ;
#98 = SHAPE_DEFINITION_REPRESENTATION ( #14, #131 ) ;
#99 = DIRECTION ( 'NONE',  ( -3.491481338843133355E-15, 1.224646799147353207E-16, -1.000000000000000000 ) ) ;
#100 = CC_DESIGN_SECURITY_CLASSIFICATION ( #154, ( #55 ) ) ;
#101 = DIRECTION ( 'NONE',  ( 0.0000000000000000000, 1.000000000000000000, 0.0000000000000000000 ) ) ;
#102 = LOCAL_TIME ( 9, 49, 0.0000000000000000000, #126 ) ;
#103 = APPROVAL_STATUS ( 'not_yet_approved' ) ;
#104 = AXIS2_PLACEMENT_3D ( 'NONE', #85, #95, #150 ) ;
#105 = CARTESIAN_POINT ( 'NONE',  ( 1.326762908760390423E-13, 1.199999999999995293, 38.00000000000000000 ) ) ;
#106 = DIRECTION ( 'NONE',  ( 0.0000000000000000000, 1.000000000000000000, 0.0000000000000000000 ) ) ;
#107 = APPROVAL_STATUS ( 'not_yet_approved' ) ;
#108 = PERSON_AND_ORGANIZATION ( #118, #57 ) ;
#109 = DIRECTION ( 'NONE',  ( -3.491481338843133355E-15, 1.224646799147353207E-16, -1.000000000000000000 ) ) ;
#110 = VERTEX_POINT ( 'NONE', #105 ) ;
#111 = LOCAL_TIME ( 9, 49, 0.0000000000000000000, #122 ) ;
#112 = CARTESIAN_POINT ( 'NONE',  ( 1.047444401652940007E-14, 1.124819836996392658E-32, 3.000000000000000000 ) ) ;
#113 = EDGE_LOOP ( 'NONE', ( #199 ) ) ;
#114 = CARTESIAN_POINT ( 'NONE',  ( 1.316288464743861212E-13, -4.616918432785521081E-15, 37.69999999999999574 ) ) ;
#115 = CYLINDRICAL_SURFACE ( 'NONE', #169, 1.500000000000000000 ) ;
#116 = CIRCLE ( 'NONE', #69, 1.500000000000000000 ) ;
#117 = CC_DESIGN_DATE_AND_TIME_ASSIGNMENT ( #164, #21, ( #29 ) ) ;
#118 = PERSON ( 'UNSPECIFIED', 'UNSPECIFIED', 'UNSPECIFIED', ('UNSPECIFIED'), ('UNSPECIFIED'), ('UNSPECIFIED') ) ;
#119 = VERTEX_POINT ( 'NONE', #1 ) ;
#120 = CALENDAR_DATE ( 2021, 15, 11 ) ;
#121 = AXIS2_PLACEMENT_3D ( 'NONE', #112, #194, #163 ) ;
#122 = COORDINATED_UNIVERSAL_TIME_OFFSET ( 1, 0, .AHEAD. ) ;
#123 = DIRECTION ( 'NONE',  ( -3.491481338843133355E-15, 1.224646799147353207E-16, -1.000000000000000000 ) ) ;
#124 = DATE_AND_TIME ( #162, #149 ) ;
#125 = FACE_OUTER_BOUND ( 'NONE', #93, .T. ) ;
#126 = COORDINATED_UNIVERSAL_TIME_OFFSET ( 1, 0, .AHEAD. ) ;
#127 = DIRECTION ( 'NONE',  ( -3.491481338843133355E-15, 1.224646799147353207E-16, -1.000000000000000000 ) ) ;
#128 = DIRECTION ( 'NONE',  ( -3.491481338843133355E-15, 1.224646799147353207E-16, -1.000000000000000000 ) ) ;
#129 = ORIENTED_EDGE ( 'NONE', *, *, #187, .T. ) ;
#130 = DIRECTION ( 'NONE',  ( 4.275831445896959482E-31, 1.000000000000000000, 1.224646799147353207E-16 ) ) ;
#131 = ADVANCED_BREP_SHAPE_REPRESENTATION ( '977798', ( #134, #133, #43 ), #56 ) ;
#132 = EDGE_CURVE ( 'NONE', #141, #141, #16, .T. ) ;
#133 = MANIFOLD_SOLID_BREP ( 'Corps-Déplacer/Copier1[2]', #197 ) ;
#134 = MANIFOLD_SOLID_BREP ( 'Corps-Déplacer/Copier1[1]', #3 ) ;
#135 = ORIENTED_EDGE ( 'NONE', *, *, #47, .T. ) ;
#136 = APPROVAL_PERSON_ORGANIZATION ( #7, #155, #84 ) ;
#137 = PERSON_AND_ORGANIZATION_ROLE ( 'design_owner' ) ;
#138 = CC_DESIGN_PERSON_AND_ORGANIZATION_ASSIGNMENT ( #60, #137, ( #71 ) ) ;
#139 = PERSON_AND_ORGANIZATION ( #118, #57 ) ;
#140 = DIRECTION ( 'NONE',  ( 0.0000000000000000000, 1.000000000000000000, 0.0000000000000000000 ) ) ;
#141 = VERTEX_POINT ( 'NONE', #23 ) ;
#142 = CARTESIAN_POINT ( 'NONE',  ( -6.413747168845438786E-31, 2.249639673992786412E-32, -1.836970198721029934E-16 ) ) ;
#143 = APPROVAL_ROLE ( '' ) ;
#144 = ORIENTED_EDGE ( 'NONE', *, *, #17, .T. ) ;
#145 = FACE_OUTER_BOUND ( 'NONE', #201, .T. ) ;
#146 = DATE_TIME_ROLE ( 'classification_date' ) ;
#147 = ORIENTED_EDGE ( 'NONE', *, *, #132, .T. ) ;
#148 = CARTESIAN_POINT ( 'NONE',  ( 1.047444401652940007E-14, 1.499999999999999556, 3.000000000000000000 ) ) ;
#149 = LOCAL_TIME ( 9, 49, 0.0000000000000000000, #48 ) ;
#150 = DIRECTION ( 'NONE',  ( 4.275831445896958607E-31, 1.000000000000000000, 1.224646799147353207E-16 ) ) ;
#151 = EDGE_LOOP ( 'NONE', ( #19 ) ) ;
#152 = CALENDAR_DATE ( 2021, 15, 11 ) ;
#153 = FACE_OUTER_BOUND ( 'NONE', #37, .T. ) ;
#154 = SECURITY_CLASSIFICATION ( '', '', #175 ) ;
#155 = APPROVAL ( #72, 'UNSPECIFIED' ) ;
#156 = FACE_OUTER_BOUND ( 'NONE', #151, .T. ) ;
#157 = CIRCLE ( 'NONE', #63, 1.499999999999999778 ) ;
#158 = CC_DESIGN_APPROVAL ( #155, ( #154 ) ) ;
#159 = PERSON_AND_ORGANIZATION_ROLE ( 'creator' ) ;
#160 = ADVANCED_FACE ( 'NONE', ( #183 ), #184, .F. ) ;
#161 = DIRECTION ( 'NONE',  ( 0.0000000000000000000, 0.0000000000000000000, 1.000000000000000000 ) ) ;
#162 = CALENDAR_DATE ( 2021, 15, 11 ) ;
#163 = DIRECTION ( 'NONE',  ( -4.275831445896958607E-31, -1.000000000000000000, -1.224646799147353207E-16 ) ) ;
#164 = DATE_AND_TIME ( #196, #49 ) ;
#165 = CARTESIAN_POINT ( 'NONE',  ( 1.326762908760390423E-13, -4.653657836759941941E-15, 38.00000000000000000 ) ) ;
#166 = PERSON_AND_ORGANIZATION ( #118, #57 ) ;
#167 = APPROVAL_PERSON_ORGANIZATION ( #179, #203, #143 ) ;
#168 = CARTESIAN_POINT ( 'NONE',  ( 1.047444401652940007E-14, -3.673940397442059868E-16, 3.000000000000000000 ) ) ;
#169 = AXIS2_PLACEMENT_3D ( 'NONE', #53, #99, #13 ) ;
#170 = EDGE_LOOP ( 'NONE', ( #147 ) ) ;
#171 = CC_DESIGN_PERSON_AND_ORGANIZATION_ASSIGNMENT ( #32, #191, ( #154 ) ) ;
#172 = AXIS2_PLACEMENT_3D ( 'NONE', #9, #20, #130 ) ;
#173 = CC_DESIGN_PERSON_AND_ORGANIZATION_ASSIGNMENT ( #94, #159, ( #55 ) ) ;
#174 = EDGE_CURVE ( 'NONE', #79, #79, #188, .T. ) ;
#175 = SECURITY_CLASSIFICATION_LEVEL ( 'unclassified' ) ;
#176 = PLANE ( 'NONE',  #8 ) ;
#177 = MECHANICAL_CONTEXT ( 'NONE', #64, 'mechanical' ) ;
#178 = DIRECTION ( 'NONE',  ( -3.491481338843133355E-15, 1.224646799147353207E-16, -1.000000000000000000 ) ) ;
#179 = PERSON_AND_ORGANIZATION ( #118, #57 ) ;
#180 = EDGE_LOOP ( 'NONE', ( #129 ) ) ;
#181 = LOCAL_TIME ( 9, 49, 0.0000000000000000000, #182 ) ;
#182 = COORDINATED_UNIVERSAL_TIME_OFFSET ( 1, 0, .AHEAD. ) ;
#183 = FACE_OUTER_BOUND ( 'NONE', #170, .T. ) ;
#184 = PLANE ( 'NONE',  #75 ) ;
#185 = EDGE_LOOP ( 'NONE', ( #144 ) ) ;
#186 = ADVANCED_FACE ( 'NONE', ( #125 ), #2, .T. ) ;
#187 = EDGE_CURVE ( 'NONE', #119, #119, #157, .T. ) ;
#188 = CIRCLE ( 'NONE', #97, 1.500000000000000000 ) ;
#189 = DIRECTION ( 'NONE',  ( -3.491481338843133355E-15, 1.224646799147353207E-16, -1.000000000000000000 ) ) ;
#190 = DIRECTION ( 'NONE',  ( 1.000000000000000000, 0.0000000000000000000, 0.0000000000000000000 ) ) ;
#191 = PERSON_AND_ORGANIZATION_ROLE ( 'classification_officer' ) ;
#192 = DIRECTION ( 'NONE',  ( 0.0000000000000000000, 1.000000000000000000, 0.0000000000000000000 ) ) ;
#193 = EDGE_LOOP ( 'NONE', ( #135 ) ) ;
#194 = DIRECTION ( 'NONE',  ( 3.491481338843133355E-15, -1.224646799147353207E-16, 1.000000000000000000 ) ) ;
#195 = CC_DESIGN_PERSON_AND_ORGANIZATION_ASSIGNMENT ( #166, #34, ( #55 ) ) ;
#196 = CALENDAR_DATE ( 2021, 15, 11 ) ;
#197 = CLOSED_SHELL ( 'NONE', ( #91, #10, #186 ) ) ;
#198 = FACE_BOUND ( 'NONE', #185, .T. ) ;
#199 = ORIENTED_EDGE ( 'NONE', *, *, #17, .F. ) ;
#200 = PLANE ( 'NONE',  #104 ) ;
#201 = EDGE_LOOP ( 'NONE', ( #74 ) ) ;
#202 = ORIENTED_EDGE ( 'NONE', *, *, #132, .F. ) ;
#203 = APPROVAL ( #107, 'UNSPECIFIED' ) ;
ENDSEC;
END-ISO-10303-21;
