ISO-10303-21;
HEADER;
FILE_DESCRIPTION (( 'STEP AP203' ),
    '1' );
FILE_NAME ('977797.step',
    '2021-11-15T08:49:00',
    ( '' ),
    ( '' ),
    'SwSTEP 2.0',
    'SolidWorks 2019',
    '' );
FILE_SCHEMA (( 'CONFIG_CONTROL_DESIGN' ));
ENDSEC;

DATA;
#1 = CALENDAR_DATE ( 2021, 15, 11 ) ;
#2 = CC_DESIGN_APPROVAL ( #71, ( #185 ) ) ;
#3 = EDGE_LOOP ( 'NONE', ( #147 ) ) ;
#4 = PERSON_AND_ORGANIZATION_ROLE ( 'classification_officer' ) ;
#5 = PLANE ( 'NONE',  #201 ) ;
#6 = DIRECTION ( 'NONE',  ( 4.275831445896958607E-31, 1.000000000000000000, 1.224646799147353207E-16 ) ) ;
#7 = CIRCLE ( 'NONE', #135, 1.249999999999999778 ) ;
#8 = AXIS2_PLACEMENT_3D ( 'NONE', #200, #169, #100 ) ;
#9 = DIRECTION ( 'NONE',  ( 3.491481338843133355E-15, -0.0000000000000000000, 1.000000000000000000 ) ) ;
#10 = PERSON_AND_ORGANIZATION_ROLE ( 'design_owner' ) ;
#11 = AXIS2_PLACEMENT_3D ( 'NONE', #42, #91, #92 ) ;
#12 = LOCAL_TIME ( 9, 49, 0.0000000000000000000, #191 ) ;
#13 = VERTEX_POINT ( 'NONE', #67 ) ;
#14 = DIRECTION ( 'NONE',  ( 1.000000000000000000, 0.0000000000000000000, -3.491481338843133355E-15 ) ) ;
#15 =( LENGTH_UNIT ( ) NAMED_UNIT ( * ) SI_UNIT ( .MILLI., .METRE. ) );
#16 = APPROVAL_PERSON_ORGANIZATION ( #127, #71, #87 ) ;
#17 = EDGE_CURVE ( 'NONE', #63, #63, #81, .T. ) ;
#18 = AXIS2_PLACEMENT_3D ( 'NONE', #207, #77, #195 ) ;
#19 = PERSON_AND_ORGANIZATION ( #176, #52 ) ;
#20 = SECURITY_CLASSIFICATION_LEVEL ( 'unclassified' ) ;
#21 = DIRECTION ( 'NONE',  ( -3.491481338843133355E-15, 1.224646799147353207E-16, -1.000000000000000000 ) ) ;
#22 = DATE_AND_TIME ( #206, #12 ) ;
#23 =( GEOMETRIC_REPRESENTATION_CONTEXT ( 3 ) GLOBAL_UNCERTAINTY_ASSIGNED_CONTEXT ( ( #132 ) ) GLOBAL_UNIT_ASSIGNED_CONTEXT ( ( #15, #33, #167 ) ) REPRESENTATION_CONTEXT ( 'NONE', 'WORKASPACE' ) );
#24 = EDGE_LOOP ( 'NONE', ( #112 ) ) ;
#25 = DATE_TIME_ROLE ( 'classification_date' ) ;
#26 = EDGE_LOOP ( 'NONE', ( #166 ) ) ;
#27 = DATE_AND_TIME ( #59, #44 ) ;
#28 = DIRECTION ( 'NONE',  ( -1.000000000000000000, 0.0000000000000000000, 3.469446951953614189E-15 ) ) ;
#29 = CYLINDRICAL_SURFACE ( 'NONE', #119, 1.500000000000000000 ) ;
#30 = CARTESIAN_POINT ( 'NONE',  ( 1.326762908760390423E-13, 1.199999999999995293, 38.00000000000000000 ) ) ;
#31 = DIRECTION ( 'NONE',  ( 3.491481338843133355E-15, -1.224646799147353207E-16, 1.000000000000000000 ) ) ;
#32 = DIRECTION ( 'NONE',  ( -4.275831445896958607E-31, -1.000000000000000000, -1.224646799147353207E-16 ) ) ;
#33 =( NAMED_UNIT ( * ) PLANE_ANGLE_UNIT ( ) SI_UNIT ( $, .RADIAN. ) );
#34 = CC_DESIGN_DATE_AND_TIME_ASSIGNMENT ( #175, #211, ( #185 ) ) ;
#35 = CC_DESIGN_SECURITY_CLASSIFICATION ( #121, ( #79 ) ) ;
#36 = AXIS2_PLACEMENT_3D ( 'NONE', #153, #196, #181 ) ;
#37 = COORDINATED_UNIVERSAL_TIME_OFFSET ( 1, 0, .AHEAD. ) ;
#38 = EDGE_LOOP ( 'NONE', ( #165 ) ) ;
#39 = APPROVAL_DATE_TIME ( #159, #84 ) ;
#40 = EDGE_LOOP ( 'NONE', ( #94 ) ) ;
#41 = ORIENTED_EDGE ( 'NONE', *, *, #129, .F. ) ;
#42 = CARTESIAN_POINT ( 'NONE',  ( 1.316288464743861212E-13, -4.616918432785521081E-15, 37.69999999999999574 ) ) ;
#43 = CARTESIAN_POINT ( 'NONE',  ( 8.728703347107831810E-15, 0.0000000000000000000, 2.499999999999999556 ) ) ;
#44 = LOCAL_TIME ( 9, 49, 0.0000000000000000000, #208 ) ;
#45 = DIRECTION ( 'NONE',  ( 4.275831445896959482E-31, 1.000000000000000000, 1.224646799147353207E-16 ) ) ;
#46 = ADVANCED_FACE ( 'NONE', ( #108, #174 ), #107, .T. ) ;
#47 = VERTEX_POINT ( 'NONE', #116 ) ;
#48 = PRODUCT_DEFINITION_SHAPE ( 'NONE', 'NONE',  #185 ) ;
#49 = ADVANCED_BREP_SHAPE_REPRESENTATION ( '977797', ( #217, #222, #8 ), #23 ) ;
#50 = VERTEX_POINT ( 'NONE', #182 ) ;
#51 = AXIS2_PLACEMENT_3D ( 'NONE', #96, #9, #28 ) ;
#52 = ORGANIZATION ( 'UNSPECIFIED', 'UNSPECIFIED', '' ) ;
#53 = FACE_OUTER_BOUND ( 'NONE', #26, .T. ) ;
#54 = LOCAL_TIME ( 9, 49, 0.0000000000000000000, #157 ) ;
#55 = PERSON_AND_ORGANIZATION ( #176, #52 ) ;
#56 = EDGE_LOOP ( 'NONE', ( #88 ) ) ;
#57 = PERSON_AND_ORGANIZATION ( #176, #52 ) ;
#58 = EDGE_LOOP ( 'NONE', ( #192 ) ) ;
#59 = CALENDAR_DATE ( 2021, 15, 11 ) ;
#60 = CYLINDRICAL_SURFACE ( 'NONE', #118, 1.249999999999999556 ) ;
#61 = ADVANCED_FACE ( 'NONE', ( #73 ), #5, .F. ) ;
#62 = EDGE_LOOP ( 'NONE', ( #177 ) ) ;
#63 = VERTEX_POINT ( 'NONE', #101 ) ;
#64 = CLOSED_SHELL ( 'NONE', ( #188, #105, #156 ) ) ;
#65 = APPLICATION_CONTEXT ( 'configuration controlled 3d designs of mechanical parts and assemblies' ) ;
#66 = PLANE ( 'NONE',  #164 ) ;
#67 = CARTESIAN_POINT ( 'NONE',  ( 1.250000000000007994, 0.0000000000000000000, 2.499999999999994227 ) ) ;
#68 = CARTESIAN_POINT ( 'NONE',  ( 0.0000000000000000000, 0.0000000000000000000, 0.0000000000000000000 ) ) ;
#69 = MECHANICAL_CONTEXT ( 'NONE', #74, 'mechanical' ) ;
#70 = APPROVAL_ROLE ( '' ) ;
#71 = APPROVAL ( #90, 'UNSPECIFIED' ) ;
#72 = DIRECTION ( 'NONE',  ( 0.0000000000000000000, 1.000000000000000000, 0.0000000000000000000 ) ) ;
#73 = FACE_OUTER_BOUND ( 'NONE', #158, .T. ) ;
#74 = APPLICATION_CONTEXT ( 'configuration controlled 3d designs of mechanical parts and assemblies' ) ;
#75 = APPROVAL_STATUS ( 'not_yet_approved' ) ;
#76 = DIRECTION ( 'NONE',  ( 3.491481338843133355E-15, -0.0000000000000000000, 1.000000000000000000 ) ) ;
#77 = DIRECTION ( 'NONE',  ( -3.491481338843133355E-15, 1.224646799147353207E-16, -1.000000000000000000 ) ) ;
#78 = AXIS2_PLACEMENT_3D ( 'NONE', #134, #220, #83 ) ;
#79 = PRODUCT_DEFINITION_FORMATION_WITH_SPECIFIED_SOURCE ( 'ANY', '', #103, .NOT_KNOWN. ) ;
#80 = FACE_OUTER_BOUND ( 'NONE', #190, .T. ) ;
#81 = CIRCLE ( 'NONE', #203, 1.499999999999999778 ) ;
#82 = CARTESIAN_POINT ( 'NONE',  ( -1.499999999999984457, 0.0000000000000000000, 4.484313483298448588 ) ) ;
#83 = DIRECTION ( 'NONE',  ( 4.275831445896958607E-31, 1.000000000000000000, 1.224646799147353207E-16 ) ) ;
#84 = APPROVAL ( #75, 'UNSPECIFIED' ) ;
#85 = DIRECTION ( 'NONE',  ( -3.491481338843133355E-15, 1.224646799147353207E-16, -1.000000000000000000 ) ) ;
#86 = CC_DESIGN_PERSON_AND_ORGANIZATION_ASSIGNMENT ( #57, #4, ( #121 ) ) ;
#87 = APPROVAL_ROLE ( '' ) ;
#88 = ORIENTED_EDGE ( 'NONE', *, *, #194, .F. ) ;
#89 = CC_DESIGN_APPROVAL ( #84, ( #79 ) ) ;
#90 = APPROVAL_STATUS ( 'not_yet_approved' ) ;
#91 = DIRECTION ( 'NONE',  ( -3.491481338843133355E-15, 1.224646799147353207E-16, -1.000000000000000000 ) ) ;
#92 = DIRECTION ( 'NONE',  ( 0.0000000000000000000, 1.000000000000000000, 0.0000000000000000000 ) ) ;
#93 = PERSON_AND_ORGANIZATION_ROLE ( 'creator' ) ;
#94 = ORIENTED_EDGE ( 'NONE', *, *, #95, .T. ) ;
#95 = EDGE_CURVE ( 'NONE', #187, #187, #213, .T. ) ;
#96 = CARTESIAN_POINT ( 'NONE',  ( 1.565689684445916233E-14, 0.0000000000000000000, 4.484313483298443259 ) ) ;
#97 = CARTESIAN_POINT ( 'NONE',  ( 8.728703347107828655E-15, 0.0000000000000000000, 2.499999999999998668 ) ) ;
#98 = EDGE_CURVE ( 'NONE', #50, #50, #183, .T. ) ;
#99 = CARTESIAN_POINT ( 'NONE',  ( 8.728703347107831810E-15, 1.124819836996392932E-32, 2.499999999999999556 ) ) ;
#100 = DIRECTION ( 'NONE',  ( 1.000000000000000000, 0.0000000000000000000, 0.0000000000000000000 ) ) ;
#101 = CARTESIAN_POINT ( 'NONE',  ( 1.316288464743861212E-13, 1.499999999999995337, 37.69999999999999574 ) ) ;
#102 = CLOSED_SHELL ( 'NONE', ( #221, #46, #61, #137, #184 ) ) ;
#103 = PRODUCT ( '977797', '977797', '', ( #69 ) ) ;
#104 = APPROVAL_DATE_TIME ( #27, #163 ) ;
#105 = ADVANCED_FACE ( 'NONE', ( #209, #130 ), #60, .T. ) ;
#106 = DATE_AND_TIME ( #123, #168 ) ;
#107 = CONICAL_SURFACE ( 'NONE', #11, 1.499999999999999778, 0.7853981633974453924 ) ;
#108 = FACE_BOUND ( 'NONE', #122, .T. ) ;
#109 = AXIS2_PLACEMENT_3D ( 'NONE', #97, #219, #223 ) ;
#110 = PERSON_AND_ORGANIZATION ( #176, #52 ) ;
#111 = CC_DESIGN_DATE_AND_TIME_ASSIGNMENT ( #106, #25, ( #121 ) ) ;
#112 = ORIENTED_EDGE ( 'NONE', *, *, #95, .F. ) ;
#113 = APPROVAL_STATUS ( 'not_yet_approved' ) ;
#114 = DIRECTION ( 'NONE',  ( 3.491481338843133355E-15, -0.0000000000000000000, 1.000000000000000000 ) ) ;
#115 = DIRECTION ( 'NONE',  ( 3.491481338843133355E-15, -0.0000000000000000000, 1.000000000000000000 ) ) ;
#116 = CARTESIAN_POINT ( 'NONE',  ( 1.249999999999999778, 0.0000000000000000000, -4.731745713298122139E-15 ) ) ;
#117 = DESIGN_CONTEXT ( 'detailed design', #65, 'design' ) ;
#118 = AXIS2_PLACEMENT_3D ( 'NONE', #205, #115, #162 ) ;
#119 = AXIS2_PLACEMENT_3D ( 'NONE', #68, #85, #45 ) ;
#120 = PERSON_AND_ORGANIZATION ( #176, #52 ) ;
#121 = SECURITY_CLASSIFICATION ( '', '', #20 ) ;
#122 = EDGE_LOOP ( 'NONE', ( #128 ) ) ;
#123 = CALENDAR_DATE ( 2021, 15, 11 ) ;
#124 = EDGE_LOOP ( 'NONE', ( #138 ) ) ;
#125 = SHAPE_DEFINITION_REPRESENTATION ( #48, #49 ) ;
#126 = CARTESIAN_POINT ( 'NONE',  ( 1.326762908760390423E-13, 8.998558695971077224E-33, 38.00000000000000000 ) ) ;
#127 = PERSON_AND_ORGANIZATION ( #176, #52 ) ;
#128 = ORIENTED_EDGE ( 'NONE', *, *, #129, .T. ) ;
#129 = EDGE_CURVE ( 'NONE', #152, #152, #212, .T. ) ;
#130 = FACE_OUTER_BOUND ( 'NONE', #56, .T. ) ;
#131 = PLANE ( 'NONE',  #36 ) ;
#132 = UNCERTAINTY_MEASURE_WITH_UNIT (LENGTH_MEASURE( 1.000000000000000082E-05 ), #15, 'distance_accuracy_value', 'NONE');
#133 = CIRCLE ( 'NONE', #109, 1.249999999999999334 ) ;
#134 = CARTESIAN_POINT ( 'NONE',  ( -3.206873584422719393E-31, 1.124819836996393206E-32, -9.184850993605149670E-17 ) ) ;
#135 = AXIS2_PLACEMENT_3D ( 'NONE', #149, #180, #14 ) ;
#136 = CC_DESIGN_PERSON_AND_ORGANIZATION_ASSIGNMENT ( #110, #139, ( #79 ) ) ;
#137 = ADVANCED_FACE ( 'NONE', ( #145, #80 ), #144, .F. ) ;
#138 = ORIENTED_EDGE ( 'NONE', *, *, #161, .T. ) ;
#139 = PERSON_AND_ORGANIZATION_ROLE ( 'design_supplier' ) ;
#140 = CARTESIAN_POINT ( 'NONE',  ( 8.728703347107828655E-15, 0.0000000000000000000, 2.499999999999998668 ) ) ;
#141 = PERSON_AND_ORGANIZATION_ROLE ( 'creator' ) ;
#142 = DIRECTION ( 'NONE',  ( 1.000000000000000000, 0.0000000000000000000, -3.469446951953616161E-15 ) ) ;
#143 = PERSON_AND_ORGANIZATION ( #176, #52 ) ;
#144 = TOROIDAL_SURFACE ( 'NONE', #170, 9.250000000000000000, 8.000000000000000000 ) ;
#145 = FACE_OUTER_BOUND ( 'NONE', #24, .T. ) ;
#146 = APPROVAL_DATE_TIME ( #22, #71 ) ;
#147 = ORIENTED_EDGE ( 'NONE', *, *, #17, .F. ) ;
#148 = APPLICATION_PROTOCOL_DEFINITION ( 'international standard', 'config_control_design', 1994, #65 ) ;
#149 = CARTESIAN_POINT ( 'NONE',  ( -1.282749433769087582E-30, 0.0000000000000000000, -3.673940397442059375E-16 ) ) ;
#150 = AXIS2_PLACEMENT_3D ( 'NONE', #140, #76, #142 ) ;
#151 = APPROVAL_PERSON_ORGANIZATION ( #143, #84, #70 ) ;
#152 = VERTEX_POINT ( 'NONE', #30 ) ;
#153 = CARTESIAN_POINT ( 'NONE',  ( 8.728703347107831810E-15, 1.124819836996392932E-32, 2.499999999999999556 ) ) ;
#154 = APPLICATION_PROTOCOL_DEFINITION ( 'international standard', 'config_control_design', 1994, #74 ) ;
#155 = CC_DESIGN_PERSON_AND_ORGANIZATION_ASSIGNMENT ( #120, #10, ( #103 ) ) ;
#156 = ADVANCED_FACE ( 'NONE', ( #193 ), #179, .T. ) ;
#157 = COORDINATED_UNIVERSAL_TIME_OFFSET ( 1, 0, .AHEAD. ) ;
#158 = EDGE_LOOP ( 'NONE', ( #41 ) ) ;
#159 = DATE_AND_TIME ( #171, #202 ) ;
#160 = DIRECTION ( 'NONE',  ( -3.491481338843133355E-15, 1.224646799147353207E-16, -1.000000000000000000 ) ) ;
#161 = EDGE_CURVE ( 'NONE', #47, #47, #7, .T. ) ;
#162 = DIRECTION ( 'NONE',  ( 1.000000000000000000, 0.0000000000000000000, -3.491481338843133355E-15 ) ) ;
#163 = APPROVAL ( #113, 'UNSPECIFIED' ) ;
#164 = AXIS2_PLACEMENT_3D ( 'NONE', #99, #31, #32 ) ;
#165 = ORIENTED_EDGE ( 'NONE', *, *, #17, .T. ) ;
#166 = ORIENTED_EDGE ( 'NONE', *, *, #98, .F. ) ;
#167 =( NAMED_UNIT ( * ) SI_UNIT ( $, .STERADIAN. ) SOLID_ANGLE_UNIT ( ) );
#168 = LOCAL_TIME ( 9, 49, 0.0000000000000000000, #204 ) ;
#169 = DIRECTION ( 'NONE',  ( 0.0000000000000000000, 0.0000000000000000000, 1.000000000000000000 ) ) ;
#170 = AXIS2_PLACEMENT_3D ( 'NONE', #43, #114, #178 ) ;
#171 = CALENDAR_DATE ( 2021, 15, 11 ) ;
#172 = APPROVAL_ROLE ( '' ) ;
#173 = APPROVAL_PERSON_ORGANIZATION ( #189, #163, #172 ) ;
#174 = FACE_OUTER_BOUND ( 'NONE', #3, .T. ) ;
#175 = DATE_AND_TIME ( #1, #54 ) ;
#176 = PERSON ( 'UNSPECIFIED', 'UNSPECIFIED', 'UNSPECIFIED', ('UNSPECIFIED'), ('UNSPECIFIED'), ('UNSPECIFIED') ) ;
#177 = ORIENTED_EDGE ( 'NONE', *, *, #194, .T. ) ;
#178 = DIRECTION ( 'NONE',  ( 1.000000000000000000, 0.0000000000000000000, -3.491481338843133355E-15 ) ) ;
#179 = PLANE ( 'NONE',  #78 ) ;
#180 = DIRECTION ( 'NONE',  ( 3.491481338843133355E-15, -0.0000000000000000000, 1.000000000000000000 ) ) ;
#181 = DIRECTION ( 'NONE',  ( -4.275831445896958607E-31, -1.000000000000000000, -1.224646799147353207E-16 ) ) ;
#182 = CARTESIAN_POINT ( 'NONE',  ( 1.250000000000007994, 0.0000000000000000000, 2.499999999999994227 ) ) ;
#183 = CIRCLE ( 'NONE', #150, 1.249999999999999334 ) ;
#184 = ADVANCED_FACE ( 'NONE', ( #53 ), #131, .F. ) ;
#185 = PRODUCT_DEFINITION ( 'UNKNOWN', '', #79, #117 ) ;
#186 = FACE_OUTER_BOUND ( 'NONE', #38, .T. ) ;
#187 = VERTEX_POINT ( 'NONE', #82 ) ;
#188 = ADVANCED_FACE ( 'NONE', ( #198 ), #66, .T. ) ;
#189 = PERSON_AND_ORGANIZATION ( #176, #52 ) ;
#190 = EDGE_LOOP ( 'NONE', ( #215 ) ) ;
#191 = COORDINATED_UNIVERSAL_TIME_OFFSET ( 1, 0, .AHEAD. ) ;
#192 = ORIENTED_EDGE ( 'NONE', *, *, #161, .F. ) ;
#193 = FACE_OUTER_BOUND ( 'NONE', #58, .T. ) ;
#194 = EDGE_CURVE ( 'NONE', #13, #13, #133, .T. ) ;
#195 = DIRECTION ( 'NONE',  ( 0.0000000000000000000, 1.000000000000000000, 0.0000000000000000000 ) ) ;
#196 = DIRECTION ( 'NONE',  ( 3.491481338843133355E-15, -1.224646799147353207E-16, 1.000000000000000000 ) ) ;
#197 = FACE_OUTER_BOUND ( 'NONE', #40, .T. ) ;
#198 = FACE_OUTER_BOUND ( 'NONE', #62, .T. ) ;
#199 = CC_DESIGN_PERSON_AND_ORGANIZATION_ASSIGNMENT ( #55, #93, ( #185 ) ) ;
#200 = CARTESIAN_POINT ( 'NONE',  ( 0.0000000000000000000, 0.0000000000000000000, 0.0000000000000000000 ) ) ;
#201 = AXIS2_PLACEMENT_3D ( 'NONE', #126, #160, #6 ) ;
#202 = LOCAL_TIME ( 9, 49, 0.0000000000000000000, #37 ) ;
#203 = AXIS2_PLACEMENT_3D ( 'NONE', #216, #21, #72 ) ;
#204 = COORDINATED_UNIVERSAL_TIME_OFFSET ( 1, 0, .AHEAD. ) ;
#205 = CARTESIAN_POINT ( 'NONE',  ( 0.0000000000000000000, 0.0000000000000000000, 0.0000000000000000000 ) ) ;
#206 = CALENDAR_DATE ( 2021, 15, 11 ) ;
#207 = CARTESIAN_POINT ( 'NONE',  ( 1.326762908760390423E-13, -4.653657836759941941E-15, 38.00000000000000000 ) ) ;
#208 = COORDINATED_UNIVERSAL_TIME_OFFSET ( 1, 0, .AHEAD. ) ;
#209 = FACE_OUTER_BOUND ( 'NONE', #124, .T. ) ;
#210 = CC_DESIGN_PERSON_AND_ORGANIZATION_ASSIGNMENT ( #19, #141, ( #79 ) ) ;
#211 = DATE_TIME_ROLE ( 'creation_date' ) ;
#212 = CIRCLE ( 'NONE', #18, 1.199999999999999956 ) ;
#213 = CIRCLE ( 'NONE', #51, 1.500000000000000000 ) ;
#214 = CC_DESIGN_APPROVAL ( #163, ( #121 ) ) ;
#215 = ORIENTED_EDGE ( 'NONE', *, *, #98, .T. ) ;
#216 = CARTESIAN_POINT ( 'NONE',  ( 1.316288464743861212E-13, -4.616918432785521081E-15, 37.69999999999999574 ) ) ;
#217 = MANIFOLD_SOLID_BREP ( 'Corps-Déplacer/Copier1[1]', #102 ) ;
#218 = PRODUCT_RELATED_PRODUCT_CATEGORY ( 'detail', '', ( #103 ) ) ;
#219 = DIRECTION ( 'NONE',  ( 3.491481338843133355E-15, -0.0000000000000000000, 1.000000000000000000 ) ) ;
#220 = DIRECTION ( 'NONE',  ( -3.491481338843133355E-15, 1.224646799147353207E-16, -1.000000000000000000 ) ) ;
#221 = ADVANCED_FACE ( 'NONE', ( #186, #197 ), #29, .T. ) ;
#222 = MANIFOLD_SOLID_BREP ( 'Corps-Déplacer/Copier1[2]', #64 ) ;
#223 = DIRECTION ( 'NONE',  ( 1.000000000000000000, 0.0000000000000000000, -3.469446951953616161E-15 ) ) ;
ENDSEC;
END-ISO-10303-21;
