ISO-10303-21;
HEADER;
FILE_DESCRIPTION (( 'STEP AP203' ),
    '1' );
FILE_NAME ('977796.step',
    '2021-11-15T08:48:59',
    ( '' ),
    ( '' ),
    'SwSTEP 2.0',
    'SolidWorks 2019',
    '' );
FILE_SCHEMA (( 'CONFIG_CONTROL_DESIGN' ));
ENDSEC;

DATA;
#1 = CARTESIAN_POINT ( 'NONE',  ( 0.0000000000000000000, 0.0000000000000000000, 0.0000000000000000000 ) ) ;
#2 = AXIS2_PLACEMENT_3D ( 'NONE', #186, #28, #81 ) ;
#3 = CARTESIAN_POINT ( 'NONE',  ( 1.000000000000007772, 0.0000000000000000000, 1.999999999999995781 ) ) ;
#4 = FACE_OUTER_BOUND ( 'NONE', #181, .T. ) ;
#5 = DIRECTION ( 'NONE',  ( 3.491481338843133355E-15, -0.0000000000000000000, 1.000000000000000000 ) ) ;
#6 = PERSON_AND_ORGANIZATION_ROLE ( 'creator' ) ;
#7 = PERSON_AND_ORGANIZATION ( #77, #198 ) ;
#8 =( NAMED_UNIT ( * ) SI_UNIT ( $, .STERADIAN. ) SOLID_ANGLE_UNIT ( ) );
#9 = DATE_TIME_ROLE ( 'creation_date' ) ;
#10 = CC_DESIGN_APPROVAL ( #194, ( #12 ) ) ;
#11 = ORIENTED_EDGE ( 'NONE', *, *, #161, .F. ) ;
#12 = PRODUCT_DEFINITION_FORMATION_WITH_SPECIFIED_SOURCE ( 'ANY', '', #111, .NOT_KNOWN. ) ;
#13 = ADVANCED_FACE ( 'NONE', ( #45, #117 ), #61, .T. ) ;
#14 = FACE_OUTER_BOUND ( 'NONE', #182, .T. ) ;
#15 = DIRECTION ( 'NONE',  ( -3.491481338843133355E-15, 1.224646799147353207E-16, -1.000000000000000000 ) ) ;
#16 = EDGE_CURVE ( 'NONE', #30, #30, #96, .T. ) ;
#17 = DIRECTION ( 'NONE',  ( 1.000000000000000000, 0.0000000000000000000, -3.491481338843132961E-15 ) ) ;
#18 = DIRECTION ( 'NONE',  ( 3.491481338843133355E-15, -1.224646799147353207E-16, 1.000000000000000000 ) ) ;
#19 = APPLICATION_PROTOCOL_DEFINITION ( 'international standard', 'config_control_design', 1994, #50 ) ;
#20 = AXIS2_PLACEMENT_3D ( 'NONE', #109, #42, #73 ) ;
#21 = APPROVAL_DATE_TIME ( #195, #194 ) ;
#22 =( NAMED_UNIT ( * ) PLANE_ANGLE_UNIT ( ) SI_UNIT ( $, .RADIAN. ) );
#23 = CC_DESIGN_DATE_AND_TIME_ASSIGNMENT ( #130, #152, ( #177 ) ) ;
#24 = LOCAL_TIME ( 9, 48, 59.00000000000000000, #88 ) ;
#25 = PERSON_AND_ORGANIZATION ( #77, #198 ) ;
#26 = APPROVAL_ROLE ( '' ) ;
#27 = ORIENTED_EDGE ( 'NONE', *, *, #143, .T. ) ;
#28 = DIRECTION ( 'NONE',  ( -3.491481338843133355E-15, 1.224646799147353207E-16, -1.000000000000000000 ) ) ;
#29 = PLANE ( 'NONE',  #169 ) ;
#30 = VERTEX_POINT ( 'NONE', #51 ) ;
#31 = CARTESIAN_POINT ( 'NONE',  ( -1.282749433769087582E-30, 0.0000000000000000000, -3.673940397442059375E-16 ) ) ;
#32 = VERTEX_POINT ( 'NONE', #215 ) ;
#33 = AXIS2_PLACEMENT_3D ( 'NONE', #171, #15, #141 ) ;
#34 = DIRECTION ( 'NONE',  ( 1.000000000000000000, 0.0000000000000000000, -3.491481338843133355E-15 ) ) ;
#35 = CC_DESIGN_DATE_AND_TIME_ASSIGNMENT ( #178, #9, ( #132 ) ) ;
#36 = VERTEX_POINT ( 'NONE', #58 ) ;
#37 = APPROVAL_PERSON_ORGANIZATION ( #164, #167, #210 ) ;
#38 = ADVANCED_BREP_SHAPE_REPRESENTATION ( '977796', ( #70, #220, #20 ), #69 ) ;
#39 = CALENDAR_DATE ( 2021, 15, 11 ) ;
#40 = APPLICATION_CONTEXT ( 'configuration controlled 3d designs of mechanical parts and assemblies' ) ;
#41 = CC_DESIGN_PERSON_AND_ORGANIZATION_ASSIGNMENT ( #71, #108, ( #12 ) ) ;
#42 = DIRECTION ( 'NONE',  ( 0.0000000000000000000, 0.0000000000000000000, 1.000000000000000000 ) ) ;
#43 = EDGE_CURVE ( 'NONE', #172, #172, #129, .T. ) ;
#44 = EDGE_LOOP ( 'NONE', ( #62 ) ) ;
#45 = FACE_BOUND ( 'NONE', #151, .T. ) ;
#46 = CARTESIAN_POINT ( 'NONE',  ( 6.982962677686263555E-15, 0.0000000000000000000, 1.999999999999999112 ) ) ;
#47 = CC_DESIGN_APPROVAL ( #167, ( #132 ) ) ;
#48 = CARTESIAN_POINT ( 'NONE',  ( 1.316288464743861212E-13, -4.616918432785521081E-15, 37.69999999999999574 ) ) ;
#49 = DIRECTION ( 'NONE',  ( 0.0000000000000000000, 1.000000000000000000, 0.0000000000000000000 ) ) ;
#50 = APPLICATION_CONTEXT ( 'configuration controlled 3d designs of mechanical parts and assemblies' ) ;
#51 = CARTESIAN_POINT ( 'NONE',  ( -1.499999999999983347, 0.0000000000000000000, 4.783882181415012980 ) ) ;
#52 = DIRECTION ( 'NONE',  ( 3.491481338843133355E-15, -0.0000000000000000000, 1.000000000000000000 ) ) ;
#53 = CIRCLE ( 'NONE', #86, 1.199999999999999956 ) ;
#54 = APPROVAL_ROLE ( '' ) ;
#55 = VERTEX_POINT ( 'NONE', #149 ) ;
#56 = PERSON_AND_ORGANIZATION ( #77, #198 ) ;
#57 = AXIS2_PLACEMENT_3D ( 'NONE', #191, #139, #156 ) ;
#58 = CARTESIAN_POINT ( 'NONE',  ( 1.316288464743861212E-13, 1.499999999999995337, 37.69999999999999574 ) ) ;
#59 = APPROVAL_DATE_TIME ( #185, #98 ) ;
#60 = ORIENTED_EDGE ( 'NONE', *, *, #143, .F. ) ;
#61 = CONICAL_SURFACE ( 'NONE', #2, 1.499999999999999778, 0.7853981633974453924 ) ;
#62 = ORIENTED_EDGE ( 'NONE', *, *, #16, .T. ) ;
#63 = EDGE_LOOP ( 'NONE', ( #199 ) ) ;
#64 = FACE_OUTER_BOUND ( 'NONE', #44, .T. ) ;
#65 = PLANE ( 'NONE',  #154 ) ;
#66 = ADVANCED_FACE ( 'NONE', ( #83, #68 ), #155, .T. ) ;
#67 = CYLINDRICAL_SURFACE ( 'NONE', #33, 1.500000000000000000 ) ;
#68 = FACE_OUTER_BOUND ( 'NONE', #219, .T. ) ;
#69 =( GEOMETRIC_REPRESENTATION_CONTEXT ( 3 ) GLOBAL_UNCERTAINTY_ASSIGNED_CONTEXT ( ( #135 ) ) GLOBAL_UNIT_ASSIGNED_CONTEXT ( ( #145, #22, #8 ) ) REPRESENTATION_CONTEXT ( 'NONE', 'WORKASPACE' ) );
#70 = MANIFOLD_SOLID_BREP ( 'Corps-Déplacer/Copier1[1]', #165 ) ;
#71 = PERSON_AND_ORGANIZATION ( #77, #198 ) ;
#72 = APPROVAL_STATUS ( 'not_yet_approved' ) ;
#73 = DIRECTION ( 'NONE',  ( 1.000000000000000000, 0.0000000000000000000, 0.0000000000000000000 ) ) ;
#74 = CC_DESIGN_PERSON_AND_ORGANIZATION_ASSIGNMENT ( #7, #211, ( #132 ) ) ;
#75 = COORDINATED_UNIVERSAL_TIME_OFFSET ( 1, 0, .AHEAD. ) ;
#76 = EDGE_LOOP ( 'NONE', ( #202 ) ) ;
#77 = PERSON ( 'UNSPECIFIED', 'UNSPECIFIED', 'UNSPECIFIED', ('UNSPECIFIED'), ('UNSPECIFIED'), ('UNSPECIFIED') ) ;
#78 = APPROVAL_STATUS ( 'not_yet_approved' ) ;
#79 = AXIS2_PLACEMENT_3D ( 'NONE', #192, #207, #122 ) ;
#80 = CARTESIAN_POINT ( 'NONE',  ( -3.206873584422719393E-31, 1.124819836996393206E-32, -9.184850993605149670E-17 ) ) ;
#81 = DIRECTION ( 'NONE',  ( 0.0000000000000000000, 1.000000000000000000, 0.0000000000000000000 ) ) ;
#82 = CC_DESIGN_APPROVAL ( #98, ( #177 ) ) ;
#83 = FACE_OUTER_BOUND ( 'NONE', #113, .T. ) ;
#84 = DIRECTION ( 'NONE',  ( -3.491481338843133355E-15, 1.224646799147353207E-16, -1.000000000000000000 ) ) ;
#85 = DIRECTION ( 'NONE',  ( 3.491481338843133355E-15, -0.0000000000000000000, 1.000000000000000000 ) ) ;
#86 = AXIS2_PLACEMENT_3D ( 'NONE', #119, #190, #49 ) ;
#87 = PERSON_AND_ORGANIZATION ( #77, #198 ) ;
#88 = COORDINATED_UNIVERSAL_TIME_OFFSET ( 1, 0, .AHEAD. ) ;
#89 = PERSON_AND_ORGANIZATION_ROLE ( 'design_owner' ) ;
#90 = EDGE_CURVE ( 'NONE', #32, #32, #213, .T. ) ;
#91 = LOCAL_TIME ( 9, 48, 59.00000000000000000, #75 ) ;
#92 = AXIS2_PLACEMENT_3D ( 'NONE', #46, #52, #99 ) ;
#93 = APPROVAL_STATUS ( 'not_yet_approved' ) ;
#94 = EDGE_LOOP ( 'NONE', ( #153 ) ) ;
#95 = DESIGN_CONTEXT ( 'detailed design', #50, 'design' ) ;
#96 = CIRCLE ( 'NONE', #193, 1.500000000000000000 ) ;
#97 = CARTESIAN_POINT ( 'NONE',  ( 6.982962677686266711E-15, 0.0000000000000000000, 2.000000000000000000 ) ) ;
#98 = APPROVAL ( #78, 'UNSPECIFIED' ) ;
#99 = DIRECTION ( 'NONE',  ( 1.000000000000000000, 0.0000000000000000000, -3.469446951953611033E-15 ) ) ;
#100 = FACE_OUTER_BOUND ( 'NONE', #94, .T. ) ;
#101 = CC_DESIGN_PERSON_AND_ORGANIZATION_ASSIGNMENT ( #25, #89, ( #111 ) ) ;
#102 = DIRECTION ( 'NONE',  ( -1.000000000000000000, 0.0000000000000000000, 3.469446951953614189E-15 ) ) ;
#103 = DIRECTION ( 'NONE',  ( 3.491481338843133355E-15, -1.224646799147353207E-16, 1.000000000000000000 ) ) ;
#104 = PERSON_AND_ORGANIZATION ( #77, #198 ) ;
#105 = ADVANCED_FACE ( 'NONE', ( #123 ), #65, .T. ) ;
#106 = AXIS2_PLACEMENT_3D ( 'NONE', #97, #170, #17 ) ;
#107 = APPLICATION_PROTOCOL_DEFINITION ( 'international standard', 'config_control_design', 1994, #40 ) ;
#108 = PERSON_AND_ORGANIZATION_ROLE ( 'design_supplier' ) ;
#109 = CARTESIAN_POINT ( 'NONE',  ( 0.0000000000000000000, 0.0000000000000000000, 0.0000000000000000000 ) ) ;
#110 = LOCAL_TIME ( 9, 48, 59.00000000000000000, #147 ) ;
#111 = PRODUCT ( '977796', '977796', '', ( #128 ) ) ;
#112 = PRODUCT_DEFINITION_SHAPE ( 'NONE', 'NONE',  #132 ) ;
#113 = EDGE_LOOP ( 'NONE', ( #201 ) ) ;
#114 = ORIENTED_EDGE ( 'NONE', *, *, #137, .F. ) ;
#115 = AXIS2_PLACEMENT_3D ( 'NONE', #1, #85, #34 ) ;
#116 = PERSON_AND_ORGANIZATION ( #77, #198 ) ;
#117 = FACE_OUTER_BOUND ( 'NONE', #133, .T. ) ;
#118 = EDGE_LOOP ( 'NONE', ( #60 ) ) ;
#119 = CARTESIAN_POINT ( 'NONE',  ( 1.326762908760390423E-13, -4.653657836759941941E-15, 38.00000000000000000 ) ) ;
#120 = TOROIDAL_SURFACE ( 'NONE', #106, 9.000000000000001776, 8.000000000000000000 ) ;
#121 = CARTESIAN_POINT ( 'NONE',  ( 6.982962677686266711E-15, 1.124819836996392932E-32, 2.000000000000000000 ) ) ;
#122 = DIRECTION ( 'NONE',  ( 4.275831445896958607E-31, 1.000000000000000000, 1.224646799147353207E-16 ) ) ;
#123 = FACE_OUTER_BOUND ( 'NONE', #134, .T. ) ;
#124 = LOCAL_TIME ( 9, 48, 59.00000000000000000, #126 ) ;
#125 = FACE_OUTER_BOUND ( 'NONE', #76, .T. ) ;
#126 = COORDINATED_UNIVERSAL_TIME_OFFSET ( 1, 0, .AHEAD. ) ;
#127 = CALENDAR_DATE ( 2021, 15, 11 ) ;
#128 = MECHANICAL_CONTEXT ( 'NONE', #40, 'mechanical' ) ;
#129 = CIRCLE ( 'NONE', #57, 1.000000000000000888 ) ;
#130 = DATE_AND_TIME ( #162, #24 ) ;
#131 = ADVANCED_FACE ( 'NONE', ( #223 ), #140, .F. ) ;
#132 = PRODUCT_DEFINITION ( 'UNKNOWN', '', #12, #95 ) ;
#133 = EDGE_LOOP ( 'NONE', ( #114 ) ) ;
#134 = EDGE_LOOP ( 'NONE', ( #222 ) ) ;
#135 = UNCERTAINTY_MEASURE_WITH_UNIT (LENGTH_MEASURE( 1.000000000000000082E-05 ), #145, 'distance_accuracy_value', 'NONE');
#136 = APPROVAL_PERSON_ORGANIZATION ( #116, #98, #26 ) ;
#137 = EDGE_CURVE ( 'NONE', #36, #36, #200, .T. ) ;
#138 = CARTESIAN_POINT ( 'NONE',  ( 6.982962677686266711E-15, 1.124819836996392932E-32, 2.000000000000000000 ) ) ;
#139 = DIRECTION ( 'NONE',  ( 3.491481338843133355E-15, -0.0000000000000000000, 1.000000000000000000 ) ) ;
#140 = PLANE ( 'NONE',  #168 ) ;
#141 = DIRECTION ( 'NONE',  ( 4.275831445896959482E-31, 1.000000000000000000, 1.224646799147353207E-16 ) ) ;
#142 = DIRECTION ( 'NONE',  ( -4.275831445896958607E-31, -1.000000000000000000, -1.224646799147353207E-16 ) ) ;
#143 = EDGE_CURVE ( 'NONE', #55, #55, #53, .T. ) ;
#144 = COORDINATED_UNIVERSAL_TIME_OFFSET ( 1, 0, .AHEAD. ) ;
#145 =( LENGTH_UNIT ( ) NAMED_UNIT ( * ) SI_UNIT ( .MILLI., .METRE. ) );
#146 = CARTESIAN_POINT ( 'NONE',  ( 1.000000000000000000, 0.0000000000000000000, -3.858875378587339589E-15 ) ) ;
#147 = COORDINATED_UNIVERSAL_TIME_OFFSET ( 1, 0, .AHEAD. ) ;
#148 = CLOSED_SHELL ( 'NONE', ( #105, #66, #183 ) ) ;
#149 = CARTESIAN_POINT ( 'NONE',  ( 1.326762908760390423E-13, 1.199999999999995293, 38.00000000000000000 ) ) ;
#150 = APPROVAL_PERSON_ORGANIZATION ( #56, #194, #54 ) ;
#151 = EDGE_LOOP ( 'NONE', ( #27 ) ) ;
#152 = DATE_TIME_ROLE ( 'classification_date' ) ;
#153 = ORIENTED_EDGE ( 'NONE', *, *, #43, .T. ) ;
#154 = AXIS2_PLACEMENT_3D ( 'NONE', #121, #18, #174 ) ;
#155 = CYLINDRICAL_SURFACE ( 'NONE', #115, 1.000000000000000444 ) ;
#156 = DIRECTION ( 'NONE',  ( 1.000000000000000000, 0.0000000000000000000, -3.469446951953611033E-15 ) ) ;
#157 = DIRECTION ( 'NONE',  ( 1.000000000000000000, 0.0000000000000000000, -3.491481338843133355E-15 ) ) ;
#158 = DIRECTION ( 'NONE',  ( 4.275831445896958607E-31, 1.000000000000000000, 1.224646799147353207E-16 ) ) ;
#159 = ADVANCED_FACE ( 'NONE', ( #203 ), #208, .F. ) ;
#160 = VERTEX_POINT ( 'NONE', #146 ) ;
#161 = EDGE_CURVE ( 'NONE', #160, #160, #216, .T. ) ;
#162 = CALENDAR_DATE ( 2021, 15, 11 ) ;
#163 = APPROVAL_DATE_TIME ( #214, #167 ) ;
#164 = PERSON_AND_ORGANIZATION ( #77, #198 ) ;
#165 = CLOSED_SHELL ( 'NONE', ( #218, #13, #159, #197, #131 ) ) ;
#166 = ORIENTED_EDGE ( 'NONE', *, *, #90, .F. ) ;
#167 = APPROVAL ( #72, 'UNSPECIFIED' ) ;
#168 = AXIS2_PLACEMENT_3D ( 'NONE', #138, #103, #142 ) ;
#169 = AXIS2_PLACEMENT_3D ( 'NONE', #80, #204, #158 ) ;
#170 = DIRECTION ( 'NONE',  ( 3.491481338843133355E-15, -0.0000000000000000000, 1.000000000000000000 ) ) ;
#171 = CARTESIAN_POINT ( 'NONE',  ( 0.0000000000000000000, 0.0000000000000000000, 0.0000000000000000000 ) ) ;
#172 = VERTEX_POINT ( 'NONE', #3 ) ;
#173 = CC_DESIGN_SECURITY_CLASSIFICATION ( #177, ( #12 ) ) ;
#174 = DIRECTION ( 'NONE',  ( -4.275831445896958607E-31, -1.000000000000000000, -1.224646799147353207E-16 ) ) ;
#175 = CARTESIAN_POINT ( 'NONE',  ( 1.670283536363468126E-14, 0.0000000000000000000, 4.783882181415007651 ) ) ;
#176 = SECURITY_CLASSIFICATION_LEVEL ( 'unclassified' ) ;
#177 = SECURITY_CLASSIFICATION ( '', '', #176 ) ;
#178 = DATE_AND_TIME ( #39, #180 ) ;
#179 = PERSON_AND_ORGANIZATION_ROLE ( 'classification_officer' ) ;
#180 = LOCAL_TIME ( 9, 48, 59.00000000000000000, #144 ) ;
#181 = EDGE_LOOP ( 'NONE', ( #11 ) ) ;
#182 = EDGE_LOOP ( 'NONE', ( #188 ) ) ;
#183 = ADVANCED_FACE ( 'NONE', ( #4 ), #29, .T. ) ;
#184 = CC_DESIGN_PERSON_AND_ORGANIZATION_ASSIGNMENT ( #87, #179, ( #177 ) ) ;
#185 = DATE_AND_TIME ( #187, #91 ) ;
#186 = CARTESIAN_POINT ( 'NONE',  ( 1.316288464743861212E-13, -4.616918432785521081E-15, 37.69999999999999574 ) ) ;
#187 = CALENDAR_DATE ( 2021, 15, 11 ) ;
#188 = ORIENTED_EDGE ( 'NONE', *, *, #137, .T. ) ;
#189 = DIRECTION ( 'NONE',  ( 3.491481338843133355E-15, -0.0000000000000000000, 1.000000000000000000 ) ) ;
#190 = DIRECTION ( 'NONE',  ( -3.491481338843133355E-15, 1.224646799147353207E-16, -1.000000000000000000 ) ) ;
#191 = CARTESIAN_POINT ( 'NONE',  ( 6.982962677686263555E-15, 0.0000000000000000000, 1.999999999999999112 ) ) ;
#192 = CARTESIAN_POINT ( 'NONE',  ( 1.326762908760390423E-13, 8.998558695971077224E-33, 38.00000000000000000 ) ) ;
#193 = AXIS2_PLACEMENT_3D ( 'NONE', #175, #5, #102 ) ;
#194 = APPROVAL ( #93, 'UNSPECIFIED' ) ;
#195 = DATE_AND_TIME ( #127, #124 ) ;
#196 = CALENDAR_DATE ( 2021, 15, 11 ) ;
#197 = ADVANCED_FACE ( 'NONE', ( #125, #100 ), #120, .F. ) ;
#198 = ORGANIZATION ( 'UNSPECIFIED', 'UNSPECIFIED', '' ) ;
#199 = ORIENTED_EDGE ( 'NONE', *, *, #43, .F. ) ;
#200 = CIRCLE ( 'NONE', #221, 1.499999999999999778 ) ;
#201 = ORIENTED_EDGE ( 'NONE', *, *, #161, .T. ) ;
#202 = ORIENTED_EDGE ( 'NONE', *, *, #16, .F. ) ;
#203 = FACE_OUTER_BOUND ( 'NONE', #118, .T. ) ;
#204 = DIRECTION ( 'NONE',  ( -3.491481338843133355E-15, 1.224646799147353207E-16, -1.000000000000000000 ) ) ;
#205 = PRODUCT_RELATED_PRODUCT_CATEGORY ( 'detail', '', ( #111 ) ) ;
#206 = DIRECTION ( 'NONE',  ( 0.0000000000000000000, 1.000000000000000000, 0.0000000000000000000 ) ) ;
#207 = DIRECTION ( 'NONE',  ( -3.491481338843133355E-15, 1.224646799147353207E-16, -1.000000000000000000 ) ) ;
#208 = PLANE ( 'NONE',  #79 ) ;
#209 = AXIS2_PLACEMENT_3D ( 'NONE', #31, #189, #157 ) ;
#210 = APPROVAL_ROLE ( '' ) ;
#211 = PERSON_AND_ORGANIZATION_ROLE ( 'creator' ) ;
#212 = CC_DESIGN_PERSON_AND_ORGANIZATION_ASSIGNMENT ( #104, #6, ( #12 ) ) ;
#213 = CIRCLE ( 'NONE', #92, 1.000000000000000888 ) ;
#214 = DATE_AND_TIME ( #196, #110 ) ;
#215 = CARTESIAN_POINT ( 'NONE',  ( 1.000000000000007772, 0.0000000000000000000, 1.999999999999995781 ) ) ;
#216 = CIRCLE ( 'NONE', #209, 1.000000000000000000 ) ;
#217 = SHAPE_DEFINITION_REPRESENTATION ( #112, #38 ) ;
#218 = ADVANCED_FACE ( 'NONE', ( #14, #64 ), #67, .T. ) ;
#219 = EDGE_LOOP ( 'NONE', ( #166 ) ) ;
#220 = MANIFOLD_SOLID_BREP ( 'Corps-Déplacer/Copier1[2]', #148 ) ;
#221 = AXIS2_PLACEMENT_3D ( 'NONE', #48, #84, #206 ) ;
#222 = ORIENTED_EDGE ( 'NONE', *, *, #90, .T. ) ;
#223 = FACE_OUTER_BOUND ( 'NONE', #63, .T. ) ;
ENDSEC;
END-ISO-10303-21;
