ISO-10303-21;
HEADER;
FILE_DESCRIPTION (( 'STEP AP203' ),
    '1' );
FILE_NAME ('977795.step',
    '2021-11-15T08:48:59',
    ( '' ),
    ( '' ),
    'SwSTEP 2.0',
    'SolidWorks 2019',
    '' );
FILE_SCHEMA (( 'CONFIG_CONTROL_DESIGN' ));
ENDSEC;

DATA;
#1 = DIRECTION ( 'NONE',  ( 0.0000000000000000000, 1.000000000000000000, 0.0000000000000000000 ) ) ;
#2 = AXIS2_PLACEMENT_3D ( 'NONE', #171, #199, #158 ) ;
#3 = DATE_AND_TIME ( #109, #34 ) ;
#4 = EDGE_CURVE ( 'NONE', #129, #129, #102, .T. ) ;
#5 = PERSON_AND_ORGANIZATION ( #220, #31 ) ;
#6 = CARTESIAN_POINT ( 'NONE',  ( -1.499999999999983125, 0.0000000000000000000, 4.815047169429687024 ) ) ;
#7 = PLANE ( 'NONE',  #203 ) ;
#8 = DIRECTION ( 'NONE',  ( 3.491481338843133355E-15, -0.0000000000000000000, 1.000000000000000000 ) ) ;
#9 = DIRECTION ( 'NONE',  ( 1.000000000000000000, 0.0000000000000000000, -3.491481338843133355E-15 ) ) ;
#10 = CARTESIAN_POINT ( 'NONE',  ( 6.633814543801949431E-15, 0.0000000000000000000, 1.899999999999999023 ) ) ;
#11 = CIRCLE ( 'NONE', #145, 0.9499999999999995115 ) ;
#12 = LOCAL_TIME ( 9, 48, 59.00000000000000000, #90 ) ;
#13 = ADVANCED_FACE ( 'NONE', ( #126, #87 ), #41, .T. ) ;
#14 = CC_DESIGN_PERSON_AND_ORGANIZATION_ASSIGNMENT ( #83, #161, ( #164 ) ) ;
#15 = DIRECTION ( 'NONE',  ( 1.000000000000000000, 0.0000000000000000000, 0.0000000000000000000 ) ) ;
#16 = EDGE_LOOP ( 'NONE', ( #207 ) ) ;
#17 = CC_DESIGN_PERSON_AND_ORGANIZATION_ASSIGNMENT ( #124, #35, ( #95 ) ) ;
#18 = ORIENTED_EDGE ( 'NONE', *, *, #76, .F. ) ;
#19 = APPROVAL_DATE_TIME ( #165, #120 ) ;
#20 = ORIENTED_EDGE ( 'NONE', *, *, #118, .T. ) ;
#21 = PERSON_AND_ORGANIZATION ( #220, #31 ) ;
#22 = DATE_TIME_ROLE ( 'creation_date' ) ;
#23 = CARTESIAN_POINT ( 'NONE',  ( 0.0000000000000000000, 0.0000000000000000000, 0.0000000000000000000 ) ) ;
#24 = CARTESIAN_POINT ( 'NONE',  ( 0.9500000000000060618, 0.0000000000000000000, 1.899999999999995692 ) ) ;
#25 = DIRECTION ( 'NONE',  ( 3.491481338843133355E-15, -1.224646799147353207E-16, 1.000000000000000000 ) ) ;
#26 = DIRECTION ( 'NONE',  ( 4.275831445896959482E-31, 1.000000000000000000, 1.224646799147353207E-16 ) ) ;
#27 =( NAMED_UNIT ( * ) PLANE_ANGLE_UNIT ( ) SI_UNIT ( $, .RADIAN. ) );
#28 = VERTEX_POINT ( 'NONE', #24 ) ;
#29 = FACE_OUTER_BOUND ( 'NONE', #53, .T. ) ;
#30 = DIRECTION ( 'NONE',  ( 3.491481338843133355E-15, -0.0000000000000000000, 1.000000000000000000 ) ) ;
#31 = ORGANIZATION ( 'UNSPECIFIED', 'UNSPECIFIED', '' ) ;
#32 = CIRCLE ( 'NONE', #218, 1.500000000000000000 ) ;
#33 = PRODUCT_RELATED_PRODUCT_CATEGORY ( 'detail', '', ( #123 ) ) ;
#34 = LOCAL_TIME ( 9, 48, 59.00000000000000000, #42 ) ;
#35 = PERSON_AND_ORGANIZATION_ROLE ( 'creator' ) ;
#36 = APPROVAL_STATUS ( 'not_yet_approved' ) ;
#37 = EDGE_LOOP ( 'NONE', ( #91 ) ) ;
#38 = CALENDAR_DATE ( 2021, 15, 11 ) ;
#39 = CLOSED_SHELL ( 'NONE', ( #60, #154, #160 ) ) ;
#40 = LOCAL_TIME ( 9, 48, 59.00000000000000000, #197 ) ;
#41 = CYLINDRICAL_SURFACE ( 'NONE', #70, 1.500000000000000000 ) ;
#42 = COORDINATED_UNIVERSAL_TIME_OFFSET ( 1, 0, .AHEAD. ) ;
#43 = DIRECTION ( 'NONE',  ( 4.275831445896958607E-31, 1.000000000000000000, 1.224646799147353207E-16 ) ) ;
#44 = AXIS2_PLACEMENT_3D ( 'NONE', #222, #212, #57 ) ;
#45 = PLANE ( 'NONE',  #2 ) ;
#46 = FACE_BOUND ( 'NONE', #148, .T. ) ;
#47 = CARTESIAN_POINT ( 'NONE',  ( 1.326762908760390423E-13, 8.998558695971077224E-33, 38.00000000000000000 ) ) ;
#48 = CIRCLE ( 'NONE', #159, 1.499999999999999778 ) ;
#49 = AXIS2_PLACEMENT_3D ( 'NONE', #10, #96, #178 ) ;
#50 = ORIENTED_EDGE ( 'NONE', *, *, #80, .T. ) ;
#51 = PERSON_AND_ORGANIZATION_ROLE ( 'design_owner' ) ;
#52 = CALENDAR_DATE ( 2021, 15, 11 ) ;
#53 = EDGE_LOOP ( 'NONE', ( #50 ) ) ;
#54 = APPROVAL_DATE_TIME ( #107, #61 ) ;
#55 = MANIFOLD_SOLID_BREP ( 'Corps-Déplacer/Copier1[2]', #39 ) ;
#56 = CARTESIAN_POINT ( 'NONE',  ( 0.0000000000000000000, 0.0000000000000000000, 0.0000000000000000000 ) ) ;
#57 = DIRECTION ( 'NONE',  ( 0.0000000000000000000, 1.000000000000000000, 0.0000000000000000000 ) ) ;
#58 = PERSON_AND_ORGANIZATION ( #220, #31 ) ;
#59 = DIRECTION ( 'NONE',  ( -3.491481338843133355E-15, 1.224646799147353207E-16, -1.000000000000000000 ) ) ;
#60 = ADVANCED_FACE ( 'NONE', ( #117 ), #7, .T. ) ;
#61 = APPROVAL ( #36, 'UNSPECIFIED' ) ;
#62 = FACE_OUTER_BOUND ( 'NONE', #37, .T. ) ;
#63 = ADVANCED_FACE ( 'NONE', ( #153 ), #45, .F. ) ;
#64 = CYLINDRICAL_SURFACE ( 'NONE', #67, 0.9499999999999996225 ) ;
#65 = DIRECTION ( 'NONE',  ( 1.000000000000000000, 0.0000000000000000000, -3.423796334164752505E-15 ) ) ;
#66 = AXIS2_PLACEMENT_3D ( 'NONE', #115, #139, #190 ) ;
#67 = AXIS2_PLACEMENT_3D ( 'NONE', #98, #8, #155 ) ;
#68 = MECHANICAL_CONTEXT ( 'NONE', #79, 'mechanical' ) ;
#69 = APPLICATION_PROTOCOL_DEFINITION ( 'international standard', 'config_control_design', 1994, #134 ) ;
#70 = AXIS2_PLACEMENT_3D ( 'NONE', #23, #93, #26 ) ;
#71 = COORDINATED_UNIVERSAL_TIME_OFFSET ( 1, 0, .AHEAD. ) ;
#72 = SHAPE_DEFINITION_REPRESENTATION ( #182, #188 ) ;
#73 = CARTESIAN_POINT ( 'NONE',  ( 6.633814543801949431E-15, 0.0000000000000000000, 1.899999999999999023 ) ) ;
#74 = AXIS2_PLACEMENT_3D ( 'NONE', #100, #175, #1 ) ;
#75 = DIRECTION ( 'NONE',  ( -1.000000000000000000, 0.0000000000000000000, 3.469446951953614189E-15 ) ) ;
#76 = EDGE_CURVE ( 'NONE', #173, #173, #32, .T. ) ;
#77 = DIRECTION ( 'NONE',  ( 3.491481338843133355E-15, -0.0000000000000000000, 1.000000000000000000 ) ) ;
#78 =( NAMED_UNIT ( * ) SI_UNIT ( $, .STERADIAN. ) SOLID_ANGLE_UNIT ( ) );
#79 = APPLICATION_CONTEXT ( 'configuration controlled 3d designs of mechanical parts and assemblies' ) ;
#80 = EDGE_CURVE ( 'NONE', #187, #187, #157, .T. ) ;
#81 = CC_DESIGN_DATE_AND_TIME_ASSIGNMENT ( #3, #193, ( #82 ) ) ;
#82 = SECURITY_CLASSIFICATION ( '', '', #147 ) ;
#83 = PERSON_AND_ORGANIZATION ( #220, #31 ) ;
#84 = LOCAL_TIME ( 9, 48, 59.00000000000000000, #152 ) ;
#85 = EDGE_LOOP ( 'NONE', ( #108 ) ) ;
#86 = PERSON_AND_ORGANIZATION ( #220, #31 ) ;
#87 = FACE_OUTER_BOUND ( 'NONE', #16, .T. ) ;
#88 = APPLICATION_PROTOCOL_DEFINITION ( 'international standard', 'config_control_design', 1994, #79 ) ;
#89 = EDGE_LOOP ( 'NONE', ( #20 ) ) ;
#90 = COORDINATED_UNIVERSAL_TIME_OFFSET ( 1, 0, .AHEAD. ) ;
#91 = ORIENTED_EDGE ( 'NONE', *, *, #172, .F. ) ;
#92 = APPROVAL_DATE_TIME ( #110, #166 ) ;
#93 = DIRECTION ( 'NONE',  ( -3.491481338843133355E-15, 1.224646799147353207E-16, -1.000000000000000000 ) ) ;
#94 =( LENGTH_UNIT ( ) NAMED_UNIT ( * ) SI_UNIT ( .MILLI., .METRE. ) );
#95 = PRODUCT_DEFINITION ( 'UNKNOWN', '', #164, #136 ) ;
#96 = DIRECTION ( 'NONE',  ( 3.491481338843133355E-15, -0.0000000000000000000, 1.000000000000000000 ) ) ;
#97 =( GEOMETRIC_REPRESENTATION_CONTEXT ( 3 ) GLOBAL_UNCERTAINTY_ASSIGNED_CONTEXT ( ( #215 ) ) GLOBAL_UNIT_ASSIGNED_CONTEXT ( ( #94, #27, #78 ) ) REPRESENTATION_CONTEXT ( 'NONE', 'WORKASPACE' ) );
#98 = CARTESIAN_POINT ( 'NONE',  ( 0.0000000000000000000, 0.0000000000000000000, 0.0000000000000000000 ) ) ;
#99 = FACE_OUTER_BOUND ( 'NONE', #168, .T. ) ;
#100 = CARTESIAN_POINT ( 'NONE',  ( 1.316288464743861212E-13, -4.616918432785521081E-15, 37.69999999999999574 ) ) ;
#101 = APPROVAL_PERSON_ORGANIZATION ( #58, #61, #210 ) ;
#102 = CIRCLE ( 'NONE', #44, 1.199999999999999956 ) ;
#103 = EDGE_LOOP ( 'NONE', ( #196 ) ) ;
#104 = PERSON_AND_ORGANIZATION ( #220, #31 ) ;
#105 = ADVANCED_FACE ( 'NONE', ( #217, #29 ), #184, .F. ) ;
#106 = EDGE_LOOP ( 'NONE', ( #162 ) ) ;
#107 = DATE_AND_TIME ( #186, #84 ) ;
#108 = ORIENTED_EDGE ( 'NONE', *, *, #4, .F. ) ;
#109 = CALENDAR_DATE ( 2021, 15, 11 ) ;
#110 = DATE_AND_TIME ( #38, #40 ) ;
#111 = AXIS2_PLACEMENT_3D ( 'NONE', #213, #140, #131 ) ;
#112 = ORIENTED_EDGE ( 'NONE', *, *, #219, .F. ) ;
#113 = FACE_OUTER_BOUND ( 'NONE', #103, .T. ) ;
#114 = VERTEX_POINT ( 'NONE', #202 ) ;
#115 = CARTESIAN_POINT ( 'NONE',  ( -3.206873584422719393E-31, 1.124819836996393206E-32, -9.184850993605149670E-17 ) ) ;
#116 = DIRECTION ( 'NONE',  ( -4.275831445896958607E-31, -1.000000000000000000, -1.224646799147353207E-16 ) ) ;
#117 = FACE_OUTER_BOUND ( 'NONE', #89, .T. ) ;
#118 = EDGE_CURVE ( 'NONE', #28, #28, #11, .T. ) ;
#119 = CARTESIAN_POINT ( 'NONE',  ( 1.316288464743861212E-13, -4.616918432785521081E-15, 37.69999999999999574 ) ) ;
#120 = APPROVAL ( #181, 'UNSPECIFIED' ) ;
#121 = EDGE_LOOP ( 'NONE', ( #209 ) ) ;
#122 = CALENDAR_DATE ( 2021, 15, 11 ) ;
#123 = PRODUCT ( '977795', '977795', '', ( #68 ) ) ;
#124 = PERSON_AND_ORGANIZATION ( #220, #31 ) ;
#125 = APPROVAL_STATUS ( 'not_yet_approved' ) ;
#126 = FACE_OUTER_BOUND ( 'NONE', #106, .T. ) ;
#127 = CC_DESIGN_PERSON_AND_ORGANIZATION_ASSIGNMENT ( #86, #128, ( #82 ) ) ;
#128 = PERSON_AND_ORGANIZATION_ROLE ( 'classification_officer' ) ;
#129 = VERTEX_POINT ( 'NONE', #169 ) ;
#130 = CONICAL_SURFACE ( 'NONE', #74, 1.499999999999999778, 0.7853981633974453924 ) ;
#131 = DIRECTION ( 'NONE',  ( 1.000000000000000000, 0.0000000000000000000, -3.491481338843133750E-15 ) ) ;
#132 = CARTESIAN_POINT ( 'NONE',  ( 0.9500000000000060618, 0.0000000000000000000, 1.899999999999995692 ) ) ;
#133 = PLANE ( 'NONE',  #176 ) ;
#134 = APPLICATION_CONTEXT ( 'configuration controlled 3d designs of mechanical parts and assemblies' ) ;
#135 = DIRECTION ( 'NONE',  ( 0.0000000000000000000, 1.000000000000000000, 0.0000000000000000000 ) ) ;
#136 = DESIGN_CONTEXT ( 'detailed design', #134, 'design' ) ;
#137 = PLANE ( 'NONE',  #66 ) ;
#138 = APPROVAL_PERSON_ORGANIZATION ( #195, #120, #150 ) ;
#139 = DIRECTION ( 'NONE',  ( -3.491481338843133355E-15, 1.224646799147353207E-16, -1.000000000000000000 ) ) ;
#140 = DIRECTION ( 'NONE',  ( 3.491481338843133355E-15, -0.0000000000000000000, 1.000000000000000000 ) ) ;
#141 = MANIFOLD_SOLID_BREP ( 'Corps-Déplacer/Copier1[1]', #151 ) ;
#142 = CC_DESIGN_PERSON_AND_ORGANIZATION_ASSIGNMENT ( #104, #198, ( #164 ) ) ;
#143 = AXIS2_PLACEMENT_3D ( 'NONE', #56, #208, #15 ) ;
#144 = ADVANCED_FACE ( 'NONE', ( #205 ), #133, .F. ) ;
#145 = AXIS2_PLACEMENT_3D ( 'NONE', #73, #30, #65 ) ;
#146 = CC_DESIGN_SECURITY_CLASSIFICATION ( #82, ( #164 ) ) ;
#147 = SECURITY_CLASSIFICATION_LEVEL ( 'unclassified' ) ;
#148 = EDGE_LOOP ( 'NONE', ( #180 ) ) ;
#149 = CC_DESIGN_DATE_AND_TIME_ASSIGNMENT ( #183, #22, ( #95 ) ) ;
#150 = APPROVAL_ROLE ( '' ) ;
#151 = CLOSED_SHELL ( 'NONE', ( #13, #179, #144, #105, #63 ) ) ;
#152 = COORDINATED_UNIVERSAL_TIME_OFFSET ( 1, 0, .AHEAD. ) ;
#153 = FACE_OUTER_BOUND ( 'NONE', #121, .T. ) ;
#154 = ADVANCED_FACE ( 'NONE', ( #99, #113 ), #64, .T. ) ;
#155 = DIRECTION ( 'NONE',  ( 1.000000000000000000, 0.0000000000000000000, -3.491481338843133355E-15 ) ) ;
#156 = CARTESIAN_POINT ( 'NONE',  ( 1.681164733771318358E-14, 0.0000000000000000000, 4.815047169429681695 ) ) ;
#157 = CIRCLE ( 'NONE', #49, 0.9499999999999995115 ) ;
#158 = DIRECTION ( 'NONE',  ( -4.275831445896958607E-31, -1.000000000000000000, -1.224646799147353207E-16 ) ) ;
#159 = AXIS2_PLACEMENT_3D ( 'NONE', #119, #59, #135 ) ;
#160 = ADVANCED_FACE ( 'NONE', ( #62 ), #137, .T. ) ;
#161 = PERSON_AND_ORGANIZATION_ROLE ( 'creator' ) ;
#162 = ORIENTED_EDGE ( 'NONE', *, *, #219, .T. ) ;
#163 = EDGE_LOOP ( 'NONE', ( #112 ) ) ;
#164 = PRODUCT_DEFINITION_FORMATION_WITH_SPECIFIED_SOURCE ( 'ANY', '', #123, .NOT_KNOWN. ) ;
#165 = DATE_AND_TIME ( #52, #12 ) ;
#166 = APPROVAL ( #125, 'UNSPECIFIED' ) ;
#167 = EDGE_LOOP ( 'NONE', ( #18 ) ) ;
#168 = EDGE_LOOP ( 'NONE', ( #223 ) ) ;
#169 = CARTESIAN_POINT ( 'NONE',  ( 1.326762908760390423E-13, 1.199999999999995293, 38.00000000000000000 ) ) ;
#170 = AXIS2_PLACEMENT_3D ( 'NONE', #204, #174, #9 ) ;
#171 = CARTESIAN_POINT ( 'NONE',  ( 6.633814543801952586E-15, -2.746645503629943744E-16, 1.899999999999999689 ) ) ;
#172 = EDGE_CURVE ( 'NONE', #114, #114, #192, .T. ) ;
#173 = VERTEX_POINT ( 'NONE', #6 ) ;
#174 = DIRECTION ( 'NONE',  ( 3.491481338843133355E-15, -0.0000000000000000000, 1.000000000000000000 ) ) ;
#175 = DIRECTION ( 'NONE',  ( -3.491481338843133355E-15, 1.224646799147353207E-16, -1.000000000000000000 ) ) ;
#176 = AXIS2_PLACEMENT_3D ( 'NONE', #47, #201, #43 ) ;
#177 = APPROVAL_PERSON_ORGANIZATION ( #21, #166, #211 ) ;
#178 = DIRECTION ( 'NONE',  ( 1.000000000000000000, 0.0000000000000000000, -3.423796334164752505E-15 ) ) ;
#179 = ADVANCED_FACE ( 'NONE', ( #46, #191 ), #130, .T. ) ;
#180 = ORIENTED_EDGE ( 'NONE', *, *, #4, .T. ) ;
#181 = APPROVAL_STATUS ( 'not_yet_approved' ) ;
#182 = PRODUCT_DEFINITION_SHAPE ( 'NONE', 'NONE',  #95 ) ;
#183 = DATE_AND_TIME ( #122, #194 ) ;
#184 = TOROIDAL_SURFACE ( 'NONE', #111, 8.949999999999999289, 8.000000000000000000 ) ;
#185 = CC_DESIGN_APPROVAL ( #120, ( #164 ) ) ;
#186 = CALENDAR_DATE ( 2021, 15, 11 ) ;
#187 = VERTEX_POINT ( 'NONE', #132 ) ;
#188 = ADVANCED_BREP_SHAPE_REPRESENTATION ( '977795', ( #141, #55, #143 ), #97 ) ;
#189 = CARTESIAN_POINT ( 'NONE',  ( 1.316288464743861212E-13, 1.499999999999995337, 37.69999999999999574 ) ) ;
#190 = DIRECTION ( 'NONE',  ( 4.275831445896958607E-31, 1.000000000000000000, 1.224646799147353207E-16 ) ) ;
#191 = FACE_OUTER_BOUND ( 'NONE', #163, .T. ) ;
#192 = CIRCLE ( 'NONE', #170, 0.9499999999999998446 ) ;
#193 = DATE_TIME_ROLE ( 'classification_date' ) ;
#194 = LOCAL_TIME ( 9, 48, 59.00000000000000000, #71 ) ;
#195 = PERSON_AND_ORGANIZATION ( #220, #31 ) ;
#196 = ORIENTED_EDGE ( 'NONE', *, *, #118, .F. ) ;
#197 = COORDINATED_UNIVERSAL_TIME_OFFSET ( 1, 0, .AHEAD. ) ;
#198 = PERSON_AND_ORGANIZATION_ROLE ( 'design_supplier' ) ;
#199 = DIRECTION ( 'NONE',  ( 3.491481338843133355E-15, -1.224646799147353207E-16, 1.000000000000000000 ) ) ;
#200 = CC_DESIGN_PERSON_AND_ORGANIZATION_ASSIGNMENT ( #5, #51, ( #123 ) ) ;
#201 = DIRECTION ( 'NONE',  ( -3.491481338843133355E-15, 1.224646799147353207E-16, -1.000000000000000000 ) ) ;
#202 = CARTESIAN_POINT ( 'NONE',  ( 0.9499999999999998446, 0.0000000000000000000, -3.684301311645182132E-15 ) ) ;
#203 = AXIS2_PLACEMENT_3D ( 'NONE', #216, #25, #116 ) ;
#204 = CARTESIAN_POINT ( 'NONE',  ( -1.282749433769087582E-30, 0.0000000000000000000, -3.673940397442059375E-16 ) ) ;
#205 = FACE_OUTER_BOUND ( 'NONE', #85, .T. ) ;
#206 = CC_DESIGN_APPROVAL ( #61, ( #95 ) ) ;
#207 = ORIENTED_EDGE ( 'NONE', *, *, #76, .T. ) ;
#208 = DIRECTION ( 'NONE',  ( 0.0000000000000000000, 0.0000000000000000000, 1.000000000000000000 ) ) ;
#209 = ORIENTED_EDGE ( 'NONE', *, *, #80, .F. ) ;
#210 = APPROVAL_ROLE ( '' ) ;
#211 = APPROVAL_ROLE ( '' ) ;
#212 = DIRECTION ( 'NONE',  ( -3.491481338843133355E-15, 1.224646799147353207E-16, -1.000000000000000000 ) ) ;
#213 = CARTESIAN_POINT ( 'NONE',  ( 6.633814543801953375E-15, 0.0000000000000000000, 1.899999999999999911 ) ) ;
#214 = VERTEX_POINT ( 'NONE', #189 ) ;
#215 = UNCERTAINTY_MEASURE_WITH_UNIT (LENGTH_MEASURE( 1.000000000000000082E-05 ), #94, 'distance_accuracy_value', 'NONE');
#216 = CARTESIAN_POINT ( 'NONE',  ( 6.633814543801952586E-15, -2.746645503629943744E-16, 1.899999999999999689 ) ) ;
#217 = FACE_OUTER_BOUND ( 'NONE', #167, .T. ) ;
#218 = AXIS2_PLACEMENT_3D ( 'NONE', #156, #77, #75 ) ;
#219 = EDGE_CURVE ( 'NONE', #214, #214, #48, .T. ) ;
#220 = PERSON ( 'UNSPECIFIED', 'UNSPECIFIED', 'UNSPECIFIED', ('UNSPECIFIED'), ('UNSPECIFIED'), ('UNSPECIFIED') ) ;
#221 = CC_DESIGN_APPROVAL ( #166, ( #82 ) ) ;
#222 = CARTESIAN_POINT ( 'NONE',  ( 1.326762908760390423E-13, -4.653657836759941941E-15, 38.00000000000000000 ) ) ;
#223 = ORIENTED_EDGE ( 'NONE', *, *, #172, .T. ) ;
ENDSEC;
END-ISO-10303-21;
