ISO-10303-21;
HEADER;
FILE_DESCRIPTION (( 'STEP AP203' ),
    '1' );
FILE_NAME ('977794.step',
    '2021-11-15T08:48:58',
    ( '' ),
    ( '' ),
    'SwSTEP 2.0',
    'SolidWorks 2019',
    '' );
FILE_SCHEMA (( 'CONFIG_CONTROL_DESIGN' ));
ENDSEC;

DATA;
#1 = EDGE_LOOP ( 'NONE', ( #18 ) ) ;
#2 = EDGE_CURVE ( 'NONE', #192, #192, #44, .T. ) ;
#3 = PERSON_AND_ORGANIZATION_ROLE ( 'creator' ) ;
#4 = DIRECTION ( 'NONE',  ( 4.275831445896958607E-31, 1.000000000000000000, 1.224646799147353207E-16 ) ) ;
#5 = CARTESIAN_POINT ( 'NONE',  ( 6.284666409917640040E-15, -2.602085213965210149E-16, 1.800000000000000044 ) ) ;
#6 = CIRCLE ( 'NONE', #182, 1.199999999999999956 ) ;
#7 = CARTESIAN_POINT ( 'NONE',  ( 1.316288464743861212E-13, -4.616918432785521081E-15, 37.69999999999999574 ) ) ;
#8 = FACE_BOUND ( 'NONE', #112, .T. ) ;
#9 = APPROVAL_ROLE ( '' ) ;
#10 = CYLINDRICAL_SURFACE ( 'NONE', #133, 1.500000000000000000 ) ;
#11 = EDGE_CURVE ( 'NONE', #193, #193, #6, .T. ) ;
#12 = CC_DESIGN_PERSON_AND_ORGANIZATION_ASSIGNMENT ( #110, #93, ( #32 ) ) ;
#13 = VERTEX_POINT ( 'NONE', #214 ) ;
#14 = CARTESIAN_POINT ( 'NONE',  ( 1.326762908760390423E-13, 1.199999999999995293, 38.00000000000000000 ) ) ;
#15 = APPROVAL ( #116, 'UNSPECIFIED' ) ;
#16 = CIRCLE ( 'NONE', #64, 1.500000000000000000 ) ;
#17 = CALENDAR_DATE ( 2021, 15, 11 ) ;
#18 = ORIENTED_EDGE ( 'NONE', *, *, #73, .F. ) ;
#19 = CC_DESIGN_DATE_AND_TIME_ASSIGNMENT ( #22, #79, ( #194 ) ) ;
#20 = PERSON_AND_ORGANIZATION ( #86, #186 ) ;
#21 =( LENGTH_UNIT ( ) NAMED_UNIT ( * ) SI_UNIT ( .MILLI., .METRE. ) );
#22 = DATE_AND_TIME ( #137, #200 ) ;
#23 = ORIENTED_EDGE ( 'NONE', *, *, #11, .F. ) ;
#24 = CALENDAR_DATE ( 2021, 15, 11 ) ;
#25 = PLANE ( 'NONE',  #36 ) ;
#26 = APPROVAL ( #189, 'UNSPECIFIED' ) ;
#27 = APPROVAL_DATE_TIME ( #77, #15 ) ;
#28 = FACE_OUTER_BOUND ( 'NONE', #52, .T. ) ;
#29 = DIRECTION ( 'NONE',  ( 4.275831445896959482E-31, 1.000000000000000000, 1.224646799147353207E-16 ) ) ;
#30 = PLANE ( 'NONE',  #169 ) ;
#31 = PLANE ( 'NONE',  #117 ) ;
#32 = SECURITY_CLASSIFICATION ( '', '', #50 ) ;
#33 = CARTESIAN_POINT ( 'NONE',  ( 0.9000000000000060174, 0.0000000000000000000, 1.799999999999995826 ) ) ;
#34 = ORIENTED_EDGE ( 'NONE', *, *, #2, .T. ) ;
#35 = ORIENTED_EDGE ( 'NONE', *, *, #2, .F. ) ;
#36 = AXIS2_PLACEMENT_3D ( 'NONE', #5, #122, #159 ) ;
#37 = ORIENTED_EDGE ( 'NONE', *, *, #131, .T. ) ;
#38 = CC_DESIGN_APPROVAL ( #132, ( #32 ) ) ;
#39 = EDGE_LOOP ( 'NONE', ( #34 ) ) ;
#40 = CARTESIAN_POINT ( 'NONE',  ( 1.326762908760390423E-13, -4.653657836759941941E-15, 38.00000000000000000 ) ) ;
#41 = COORDINATED_UNIVERSAL_TIME_OFFSET ( 1, 0, .AHEAD. ) ;
#42 = DIRECTION ( 'NONE',  ( 0.0000000000000000000, 1.000000000000000000, 0.0000000000000000000 ) ) ;
#43 = DIRECTION ( 'NONE',  ( -3.491481338843133355E-15, 1.224646799147353207E-16, -1.000000000000000000 ) ) ;
#44 = CIRCLE ( 'NONE', #207, 0.8999999999999998002 ) ;
#45 = LOCAL_TIME ( 9, 48, 58.00000000000000000, #171 ) ;
#46 = DIRECTION ( 'NONE',  ( 1.000000000000000000, 0.0000000000000000000, -3.491481338843133750E-15 ) ) ;
#47 = LOCAL_TIME ( 9, 48, 58.00000000000000000, #41 ) ;
#48 = APPLICATION_PROTOCOL_DEFINITION ( 'international standard', 'config_control_design', 1994, #167 ) ;
#49 = PRODUCT ( '977794', '977794', '', ( #166 ) ) ;
#50 = SECURITY_CLASSIFICATION_LEVEL ( 'unclassified' ) ;
#51 = CIRCLE ( 'NONE', #196, 1.499999999999999778 ) ;
#52 = EDGE_LOOP ( 'NONE', ( #65 ) ) ;
#53 =( NAMED_UNIT ( * ) SI_UNIT ( $, .STERADIAN. ) SOLID_ANGLE_UNIT ( ) );
#54 = DIRECTION ( 'NONE',  ( 3.491481338843133355E-15, -0.0000000000000000000, 1.000000000000000000 ) ) ;
#55 = PERSON_AND_ORGANIZATION_ROLE ( 'design_supplier' ) ;
#56 = MANIFOLD_SOLID_BREP ( 'Corps-Déplacer/Copier1[2]', #108 ) ;
#57 = CARTESIAN_POINT ( 'NONE',  ( 6.284666409917640040E-15, 0.0000000000000000000, 1.800000000000000044 ) ) ;
#58 = ADVANCED_FACE ( 'NONE', ( #102 ), #30, .F. ) ;
#59 = DIRECTION ( 'NONE',  ( 3.491481338843133355E-15, -0.0000000000000000000, 1.000000000000000000 ) ) ;
#60 = DATE_AND_TIME ( #123, #147 ) ;
#61 = ADVANCED_FACE ( 'NONE', ( #204 ), #69, .T. ) ;
#62 = CARTESIAN_POINT ( 'NONE',  ( -1.282749433769087582E-30, 0.0000000000000000000, -3.673940397442059375E-16 ) ) ;
#63 = EDGE_CURVE ( 'NONE', #148, #148, #51, .T. ) ;
#64 = AXIS2_PLACEMENT_3D ( 'NONE', #138, #59, #157 ) ;
#65 = ORIENTED_EDGE ( 'NONE', *, *, #198, .T. ) ;
#66 = AXIS2_PLACEMENT_3D ( 'NONE', #178, #81, #4 ) ;
#67 =( GEOMETRIC_REPRESENTATION_CONTEXT ( 3 ) GLOBAL_UNCERTAINTY_ASSIGNED_CONTEXT ( ( #219 ) ) GLOBAL_UNIT_ASSIGNED_CONTEXT ( ( #21, #124, #53 ) ) REPRESENTATION_CONTEXT ( 'NONE', 'WORKASPACE' ) );
#68 = COORDINATED_UNIVERSAL_TIME_OFFSET ( 1, 0, .AHEAD. ) ;
#69 = PLANE ( 'NONE',  #66 ) ;
#70 = CARTESIAN_POINT ( 'NONE',  ( 0.0000000000000000000, 0.0000000000000000000, 0.0000000000000000000 ) ) ;
#71 = DIRECTION ( 'NONE',  ( 4.275831445896958607E-31, 1.000000000000000000, 1.224646799147353207E-16 ) ) ;
#72 = CARTESIAN_POINT ( 'NONE',  ( 6.284666409917636095E-15, 0.0000000000000000000, 1.799999999999998934 ) ) ;
#73 = EDGE_CURVE ( 'NONE', #146, #146, #107, .T. ) ;
#74 = EDGE_LOOP ( 'NONE', ( #37 ) ) ;
#75 = DATE_TIME_ROLE ( 'classification_date' ) ;
#76 = CARTESIAN_POINT ( 'NONE',  ( -1.499999999999983125, 0.0000000000000000000, 4.839736830714136850 ) ) ;
#77 = DATE_AND_TIME ( #24, #89 ) ;
#78 = PERSON_AND_ORGANIZATION ( #86, #186 ) ;
#79 = DATE_TIME_ROLE ( 'creation_date' ) ;
#80 = PERSON_AND_ORGANIZATION_ROLE ( 'design_owner' ) ;
#81 = DIRECTION ( 'NONE',  ( -3.491481338843133355E-15, 1.224646799147353207E-16, -1.000000000000000000 ) ) ;
#82 = CC_DESIGN_PERSON_AND_ORGANIZATION_ASSIGNMENT ( #100, #80, ( #49 ) ) ;
#83 = DIRECTION ( 'NONE',  ( -3.491481338843133355E-15, 1.224646799147353207E-16, -1.000000000000000000 ) ) ;
#84 = CLOSED_SHELL ( 'NONE', ( #143, #94, #58, #149, #127 ) ) ;
#85 = CARTESIAN_POINT ( 'NONE',  ( 1.326762908760390423E-13, 8.998558695971077224E-33, 38.00000000000000000 ) ) ;
#86 = PERSON ( 'UNSPECIFIED', 'UNSPECIFIED', 'UNSPECIFIED', ('UNSPECIFIED'), ('UNSPECIFIED'), ('UNSPECIFIED') ) ;
#87 = CC_DESIGN_PERSON_AND_ORGANIZATION_ASSIGNMENT ( #205, #55, ( #129 ) ) ;
#88 = CARTESIAN_POINT ( 'NONE',  ( 6.284666409917640040E-15, -2.602085213965210149E-16, 1.800000000000000044 ) ) ;
#89 = LOCAL_TIME ( 9, 48, 58.00000000000000000, #153 ) ;
#90 = CARTESIAN_POINT ( 'NONE',  ( 1.316288464743861212E-13, 1.499999999999995337, 37.69999999999999574 ) ) ;
#91 = PRODUCT_DEFINITION_SHAPE ( 'NONE', 'NONE',  #194 ) ;
#92 = EDGE_LOOP ( 'NONE', ( #35 ) ) ;
#93 = PERSON_AND_ORGANIZATION_ROLE ( 'classification_officer' ) ;
#94 = ADVANCED_FACE ( 'NONE', ( #8, #177 ), #128, .T. ) ;
#95 = APPROVAL_DATE_TIME ( #156, #26 ) ;
#96 = ORIENTED_EDGE ( 'NONE', *, *, #63, .T. ) ;
#97 = PERSON_AND_ORGANIZATION_ROLE ( 'creator' ) ;
#98 = AXIS2_PLACEMENT_3D ( 'NONE', #62, #54, #46 ) ;
#99 = FACE_OUTER_BOUND ( 'NONE', #109, .T. ) ;
#100 = PERSON_AND_ORGANIZATION ( #86, #186 ) ;
#101 = DIRECTION ( 'NONE',  ( -3.491481338843133355E-15, 1.224646799147353207E-16, -1.000000000000000000 ) ) ;
#102 = FACE_OUTER_BOUND ( 'NONE', #187, .T. ) ;
#103 = ADVANCED_BREP_SHAPE_REPRESENTATION ( '977794', ( #199, #56, #164 ), #67 ) ;
#104 = DIRECTION ( 'NONE',  ( 3.491481338843133355E-15, -1.224646799147353207E-16, 1.000000000000000000 ) ) ;
#105 = CC_DESIGN_SECURITY_CLASSIFICATION ( #32, ( #129 ) ) ;
#106 = FACE_OUTER_BOUND ( 'NONE', #39, .T. ) ;
#107 = CIRCLE ( 'NONE', #213, 0.8999999999999998002 ) ;
#108 = CLOSED_SHELL ( 'NONE', ( #168, #215, #61 ) ) ;
#109 = EDGE_LOOP ( 'NONE', ( #96 ) ) ;
#110 = PERSON_AND_ORGANIZATION ( #86, #186 ) ;
#111 = CIRCLE ( 'NONE', #98, 0.9000000000000002442 ) ;
#112 = EDGE_LOOP ( 'NONE', ( #184 ) ) ;
#113 = DIRECTION ( 'NONE',  ( 3.491481338843133355E-15, -0.0000000000000000000, 1.000000000000000000 ) ) ;
#114 = APPLICATION_PROTOCOL_DEFINITION ( 'international standard', 'config_control_design', 1994, #179 ) ;
#115 = FACE_OUTER_BOUND ( 'NONE', #74, .T. ) ;
#116 = APPROVAL_STATUS ( 'not_yet_approved' ) ;
#117 = AXIS2_PLACEMENT_3D ( 'NONE', #88, #104, #162 ) ;
#118 = APPROVAL_PERSON_ORGANIZATION ( #20, #15, #175 ) ;
#119 = DIRECTION ( 'NONE',  ( 1.000000000000000000, 0.0000000000000000000, -3.491481338843133355E-15 ) ) ;
#120 = SHAPE_DEFINITION_REPRESENTATION ( #91, #103 ) ;
#121 = FACE_OUTER_BOUND ( 'NONE', #92, .T. ) ;
#122 = DIRECTION ( 'NONE',  ( 3.491481338843133355E-15, -1.224646799147353207E-16, 1.000000000000000000 ) ) ;
#123 = CALENDAR_DATE ( 2021, 15, 11 ) ;
#124 =( NAMED_UNIT ( * ) PLANE_ANGLE_UNIT ( ) SI_UNIT ( $, .RADIAN. ) );
#125 = FACE_OUTER_BOUND ( 'NONE', #185, .T. ) ;
#126 = VERTEX_POINT ( 'NONE', #76 ) ;
#127 = ADVANCED_FACE ( 'NONE', ( #210 ), #25, .F. ) ;
#128 = CONICAL_SURFACE ( 'NONE', #220, 1.499999999999999778, 0.7853981633974453924 ) ;
#129 = PRODUCT_DEFINITION_FORMATION_WITH_SPECIFIED_SOURCE ( 'ANY', '', #49, .NOT_KNOWN. ) ;
#130 = DIRECTION ( 'NONE',  ( 1.000000000000000000, 0.0000000000000000000, 0.0000000000000000000 ) ) ;
#131 = EDGE_CURVE ( 'NONE', #13, #13, #111, .T. ) ;
#132 = APPROVAL ( #223, 'UNSPECIFIED' ) ;
#133 = AXIS2_PLACEMENT_3D ( 'NONE', #70, #181, #29 ) ;
#134 = AXIS2_PLACEMENT_3D ( 'NONE', #176, #206, #119 ) ;
#135 = DESIGN_CONTEXT ( 'detailed design', #179, 'design' ) ;
#136 = ORIENTED_EDGE ( 'NONE', *, *, #73, .T. ) ;
#137 = CALENDAR_DATE ( 2021, 15, 11 ) ;
#138 = CARTESIAN_POINT ( 'NONE',  ( 1.689785082935020235E-14, 0.0000000000000000000, 4.839736830714131521 ) ) ;
#139 = CC_DESIGN_PERSON_AND_ORGANIZATION_ASSIGNMENT ( #78, #3, ( #129 ) ) ;
#140 = DIRECTION ( 'NONE',  ( 3.491481338843133355E-15, -0.0000000000000000000, 1.000000000000000000 ) ) ;
#141 = APPROVAL_PERSON_ORGANIZATION ( #150, #132, #9 ) ;
#142 = CARTESIAN_POINT ( 'NONE',  ( 0.9000000000000060174, 0.0000000000000000000, 1.799999999999995826 ) ) ;
#143 = ADVANCED_FACE ( 'NONE', ( #99, #28 ), #10, .T. ) ;
#144 = DIRECTION ( 'NONE',  ( -3.491481338843133355E-15, 1.224646799147353207E-16, -1.000000000000000000 ) ) ;
#145 = CARTESIAN_POINT ( 'NONE',  ( 1.316288464743861212E-13, -4.616918432785521081E-15, 37.69999999999999574 ) ) ;
#146 = VERTEX_POINT ( 'NONE', #33 ) ;
#147 = LOCAL_TIME ( 9, 48, 58.00000000000000000, #211 ) ;
#148 = VERTEX_POINT ( 'NONE', #90 ) ;
#149 = ADVANCED_FACE ( 'NONE', ( #195, #125 ), #163, .F. ) ;
#150 = PERSON_AND_ORGANIZATION ( #86, #186 ) ;
#151 = DATE_AND_TIME ( #17, #45 ) ;
#152 = EDGE_LOOP ( 'NONE', ( #174 ) ) ;
#153 = COORDINATED_UNIVERSAL_TIME_OFFSET ( 1, 0, .AHEAD. ) ;
#154 = CC_DESIGN_APPROVAL ( #15, ( #194 ) ) ;
#155 = PRODUCT_RELATED_PRODUCT_CATEGORY ( 'detail', '', ( #49 ) ) ;
#156 = DATE_AND_TIME ( #201, #47 ) ;
#157 = DIRECTION ( 'NONE',  ( -1.000000000000000000, 0.0000000000000000000, 3.469446951953614189E-15 ) ) ;
#158 = PERSON_AND_ORGANIZATION ( #86, #186 ) ;
#159 = DIRECTION ( 'NONE',  ( -4.275831445896958607E-31, -1.000000000000000000, -1.224646799147353207E-16 ) ) ;
#160 = CC_DESIGN_APPROVAL ( #26, ( #129 ) ) ;
#161 = DIRECTION ( 'NONE',  ( 0.0000000000000000000, 1.000000000000000000, 0.0000000000000000000 ) ) ;
#162 = DIRECTION ( 'NONE',  ( -4.275831445896958607E-31, -1.000000000000000000, -1.224646799147353207E-16 ) ) ;
#163 = TOROIDAL_SURFACE ( 'NONE', #191, 8.900000000000000355, 8.000000000000000000 ) ;
#164 = AXIS2_PLACEMENT_3D ( 'NONE', #217, #216, #130 ) ;
#165 = APPROVAL_DATE_TIME ( #60, #132 ) ;
#166 = MECHANICAL_CONTEXT ( 'NONE', #167, 'mechanical' ) ;
#167 = APPLICATION_CONTEXT ( 'configuration controlled 3d designs of mechanical parts and assemblies' ) ;
#168 = ADVANCED_FACE ( 'NONE', ( #106 ), #31, .T. ) ;
#169 = AXIS2_PLACEMENT_3D ( 'NONE', #85, #101, #71 ) ;
#170 = APPROVAL_PERSON_ORGANIZATION ( #202, #26, #222 ) ;
#171 = COORDINATED_UNIVERSAL_TIME_OFFSET ( 1, 0, .AHEAD. ) ;
#172 = ORIENTED_EDGE ( 'NONE', *, *, #131, .F. ) ;
#173 = EDGE_LOOP ( 'NONE', ( #221 ) ) ;
#174 = ORIENTED_EDGE ( 'NONE', *, *, #63, .F. ) ;
#175 = APPROVAL_ROLE ( '' ) ;
#176 = CARTESIAN_POINT ( 'NONE',  ( 0.0000000000000000000, 0.0000000000000000000, 0.0000000000000000000 ) ) ;
#177 = FACE_OUTER_BOUND ( 'NONE', #152, .T. ) ;
#178 = CARTESIAN_POINT ( 'NONE',  ( -3.206873584422719393E-31, 1.124819836996393206E-32, -9.184850993605149670E-17 ) ) ;
#179 = APPLICATION_CONTEXT ( 'configuration controlled 3d designs of mechanical parts and assemblies' ) ;
#180 = DIRECTION ( 'NONE',  ( 1.000000000000000000, 0.0000000000000000000, -3.373073425510458853E-15 ) ) ;
#181 = DIRECTION ( 'NONE',  ( -3.491481338843133355E-15, 1.224646799147353207E-16, -1.000000000000000000 ) ) ;
#182 = AXIS2_PLACEMENT_3D ( 'NONE', #40, #83, #42 ) ;
#183 = EDGE_LOOP ( 'NONE', ( #172 ) ) ;
#184 = ORIENTED_EDGE ( 'NONE', *, *, #11, .T. ) ;
#185 = EDGE_LOOP ( 'NONE', ( #136 ) ) ;
#186 = ORGANIZATION ( 'UNSPECIFIED', 'UNSPECIFIED', '' ) ;
#187 = EDGE_LOOP ( 'NONE', ( #23 ) ) ;
#188 = DIRECTION ( 'NONE',  ( 1.000000000000000000, 0.0000000000000000000, -3.373073425510458853E-15 ) ) ;
#189 = APPROVAL_STATUS ( 'not_yet_approved' ) ;
#190 = CYLINDRICAL_SURFACE ( 'NONE', #134, 0.9000000000000000222 ) ;
#191 = AXIS2_PLACEMENT_3D ( 'NONE', #57, #197, #209 ) ;
#192 = VERTEX_POINT ( 'NONE', #142 ) ;
#193 = VERTEX_POINT ( 'NONE', #14 ) ;
#194 = PRODUCT_DEFINITION ( 'UNKNOWN', '', #129, #135 ) ;
#195 = FACE_OUTER_BOUND ( 'NONE', #173, .T. ) ;
#196 = AXIS2_PLACEMENT_3D ( 'NONE', #7, #43, #161 ) ;
#197 = DIRECTION ( 'NONE',  ( 3.491481338843133355E-15, -0.0000000000000000000, 1.000000000000000000 ) ) ;
#198 = EDGE_CURVE ( 'NONE', #126, #126, #16, .T. ) ;
#199 = MANIFOLD_SOLID_BREP ( 'Corps-Déplacer/Copier1[1]', #84 ) ;
#200 = LOCAL_TIME ( 9, 48, 58.00000000000000000, #68 ) ;
#201 = CALENDAR_DATE ( 2021, 15, 11 ) ;
#202 = PERSON_AND_ORGANIZATION ( #86, #186 ) ;
#203 = CARTESIAN_POINT ( 'NONE',  ( 6.284666409917636095E-15, 0.0000000000000000000, 1.799999999999998934 ) ) ;
#204 = FACE_OUTER_BOUND ( 'NONE', #183, .T. ) ;
#205 = PERSON_AND_ORGANIZATION ( #86, #186 ) ;
#206 = DIRECTION ( 'NONE',  ( 3.491481338843133355E-15, -0.0000000000000000000, 1.000000000000000000 ) ) ;
#207 = AXIS2_PLACEMENT_3D ( 'NONE', #203, #113, #188 ) ;
#208 = CC_DESIGN_DATE_AND_TIME_ASSIGNMENT ( #151, #75, ( #32 ) ) ;
#209 = DIRECTION ( 'NONE',  ( 1.000000000000000000, 0.0000000000000000000, -3.491481338843133750E-15 ) ) ;
#210 = FACE_OUTER_BOUND ( 'NONE', #1, .T. ) ;
#211 = COORDINATED_UNIVERSAL_TIME_OFFSET ( 1, 0, .AHEAD. ) ;
#212 = DIRECTION ( 'NONE',  ( 0.0000000000000000000, 1.000000000000000000, 0.0000000000000000000 ) ) ;
#213 = AXIS2_PLACEMENT_3D ( 'NONE', #72, #140, #180 ) ;
#214 = CARTESIAN_POINT ( 'NONE',  ( 0.9000000000000002442, 0.0000000000000000000, -3.509727244703027042E-15 ) ) ;
#215 = ADVANCED_FACE ( 'NONE', ( #115, #121 ), #190, .T. ) ;
#216 = DIRECTION ( 'NONE',  ( 0.0000000000000000000, 0.0000000000000000000, 1.000000000000000000 ) ) ;
#217 = CARTESIAN_POINT ( 'NONE',  ( 0.0000000000000000000, 0.0000000000000000000, 0.0000000000000000000 ) ) ;
#218 = CC_DESIGN_PERSON_AND_ORGANIZATION_ASSIGNMENT ( #158, #97, ( #194 ) ) ;
#219 = UNCERTAINTY_MEASURE_WITH_UNIT (LENGTH_MEASURE( 1.000000000000000082E-05 ), #21, 'distance_accuracy_value', 'NONE');
#220 = AXIS2_PLACEMENT_3D ( 'NONE', #145, #144, #212 ) ;
#221 = ORIENTED_EDGE ( 'NONE', *, *, #198, .F. ) ;
#222 = APPROVAL_ROLE ( '' ) ;
#223 = APPROVAL_STATUS ( 'not_yet_approved' ) ;
ENDSEC;
END-ISO-10303-21;
