ISO-10303-21;
HEADER;
FILE_DESCRIPTION (( 'STEP AP203' ),
    '1' );
FILE_NAME ('977793.step',
    '2021-11-15T08:48:57',
    ( '' ),
    ( '' ),
    'SwSTEP 2.0',
    'SolidWorks 2019',
    '' );
FILE_SCHEMA (( 'CONFIG_CONTROL_DESIGN' ));
ENDSEC;

DATA;
#1 = ORIENTED_EDGE ( 'NONE', *, *, #19, .T. ) ;
#2 = PERSON_AND_ORGANIZATION_ROLE ( 'creator' ) ;
#3 = APPROVAL_STATUS ( 'not_yet_approved' ) ;
#4 = APPLICATION_CONTEXT ( 'configuration controlled 3d designs of mechanical parts and assemblies' ) ;
#5 = CC_DESIGN_PERSON_AND_ORGANIZATION_ASSIGNMENT ( #138, #2, ( #161 ) ) ;
#6 = APPROVAL_PERSON_ORGANIZATION ( #83, #181, #135 ) ;
#7 = FACE_OUTER_BOUND ( 'NONE', #64, .T. ) ;
#8 = CARTESIAN_POINT ( 'NONE',  ( -1.282749433769087582E-30, 0.0000000000000000000, -3.673940397442059375E-16 ) ) ;
#9 = CARTESIAN_POINT ( 'NONE',  ( 0.0000000000000000000, 0.0000000000000000000, 0.0000000000000000000 ) ) ;
#10 = PLANE ( 'NONE',  #164 ) ;
#11 = DIRECTION ( 'NONE',  ( 0.0000000000000000000, 1.000000000000000000, 0.0000000000000000000 ) ) ;
#12 = DIRECTION ( 'NONE',  ( 0.0000000000000000000, 1.000000000000000000, 0.0000000000000000000 ) ) ;
#13 = CC_DESIGN_SECURITY_CLASSIFICATION ( #192, ( #161 ) ) ;
#14 = MECHANICAL_CONTEXT ( 'NONE', #213, 'mechanical' ) ;
#15 = EDGE_CURVE ( 'NONE', #214, #214, #125, .T. ) ;
#16 = COORDINATED_UNIVERSAL_TIME_OFFSET ( 1, 0, .AHEAD. ) ;
#17 = LOCAL_TIME ( 9, 48, 57.00000000000000000, #154 ) ;
#18 = PERSON ( 'UNSPECIFIED', 'UNSPECIFIED', 'UNSPECIFIED', ('UNSPECIFIED'), ('UNSPECIFIED'), ('UNSPECIFIED') ) ;
#19 = EDGE_CURVE ( 'NONE', #57, #57, #53, .T. ) ;
#20 = DIRECTION ( 'NONE',  ( -3.491481338843133355E-15, 1.224646799147353207E-16, -1.000000000000000000 ) ) ;
#21 = CARTESIAN_POINT ( 'NONE',  ( 5.935518276033325915E-15, 0.0000000000000000000, 1.699999999999999956 ) ) ;
#22 = DIRECTION ( 'NONE',  ( 1.000000000000000000, 0.0000000000000000000, -3.491481338843132961E-15 ) ) ;
#23 = ORIENTED_EDGE ( 'NONE', *, *, #177, .F. ) ;
#24 = FACE_OUTER_BOUND ( 'NONE', #98, .T. ) ;
#25 = CARTESIAN_POINT ( 'NONE',  ( 0.8500000000000059730, 0.0000000000000000000, 1.699999999999995737 ) ) ;
#26 = DIRECTION ( 'NONE',  ( -3.491481338843133355E-15, 1.224646799147353207E-16, -1.000000000000000000 ) ) ;
#27 = ORIENTED_EDGE ( 'NONE', *, *, #19, .F. ) ;
#28 = AXIS2_PLACEMENT_3D ( 'NONE', #130, #115, #199 ) ;
#29 = COORDINATED_UNIVERSAL_TIME_OFFSET ( 1, 0, .AHEAD. ) ;
#30 = CARTESIAN_POINT ( 'NONE',  ( 0.0000000000000000000, 0.0000000000000000000, 0.0000000000000000000 ) ) ;
#31 = PERSON_AND_ORGANIZATION_ROLE ( 'classification_officer' ) ;
#32 = AXIS2_PLACEMENT_3D ( 'NONE', #8, #183, #128 ) ;
#33 = DATE_TIME_ROLE ( 'creation_date' ) ;
#34 = ADVANCED_FACE ( 'NONE', ( #155 ), #10, .F. ) ;
#35 = CLOSED_SHELL ( 'NONE', ( #193, #205, #209 ) ) ;
#36 = FACE_BOUND ( 'NONE', #93, .T. ) ;
#37 = CARTESIAN_POINT ( 'NONE',  ( 5.935518276033322760E-15, 0.0000000000000000000, 1.699999999999998845 ) ) ;
#38 = FACE_OUTER_BOUND ( 'NONE', #116, .T. ) ;
#39 = APPROVAL_PERSON_ORGANIZATION ( #171, #143, #190 ) ;
#40 = DIRECTION ( 'NONE',  ( 3.491481338843133355E-15, -1.224646799147353207E-16, 1.000000000000000000 ) ) ;
#41 = VERTEX_POINT ( 'NONE', #145 ) ;
#42 = EDGE_LOOP ( 'NONE', ( #220 ) ) ;
#43 = CARTESIAN_POINT ( 'NONE',  ( 5.935518276033325915E-15, -2.457524924300476060E-16, 1.699999999999999734 ) ) ;
#44 = CARTESIAN_POINT ( 'NONE',  ( 1.316288464743861212E-13, 1.499999999999995337, 37.69999999999999574 ) ) ;
#45 = CC_DESIGN_DATE_AND_TIME_ASSIGNMENT ( #219, #140, ( #192 ) ) ;
#46 = PERSON_AND_ORGANIZATION ( #18, #59 ) ;
#47 = ORIENTED_EDGE ( 'NONE', *, *, #86, .T. ) ;
#48 = APPROVAL_DATE_TIME ( #208, #168 ) ;
#49 = EDGE_LOOP ( 'NONE', ( #47 ) ) ;
#50 = PERSON_AND_ORGANIZATION ( #18, #59 ) ;
#51 = LOCAL_TIME ( 9, 48, 57.00000000000000000, #29 ) ;
#52 = COORDINATED_UNIVERSAL_TIME_OFFSET ( 1, 0, .AHEAD. ) ;
#53 = CIRCLE ( 'NONE', #223, 1.500000000000000000 ) ;
#54 = PRODUCT_RELATED_PRODUCT_CATEGORY ( 'detail', '', ( #90 ) ) ;
#55 = CARTESIAN_POINT ( 'NONE',  ( 5.935518276033325915E-15, -2.457524924300476060E-16, 1.699999999999999734 ) ) ;
#56 = DESIGN_CONTEXT ( 'detailed design', #4, 'design' ) ;
#57 = VERTEX_POINT ( 'NONE', #70 ) ;
#58 = CYLINDRICAL_SURFACE ( 'NONE', #103, 0.8500000000000000888 ) ;
#59 = ORGANIZATION ( 'UNSPECIFIED', 'UNSPECIFIED', '' ) ;
#60 = EDGE_CURVE ( 'NONE', #61, #61, #178, .T. ) ;
#61 = VERTEX_POINT ( 'NONE', #25 ) ;
#62 = ORIENTED_EDGE ( 'NONE', *, *, #60, .T. ) ;
#63 = APPLICATION_PROTOCOL_DEFINITION ( 'international standard', 'config_control_design', 1994, #4 ) ;
#64 = EDGE_LOOP ( 'NONE', ( #131 ) ) ;
#65 = CIRCLE ( 'NONE', #32, 0.8500000000000000888 ) ;
#66 = APPROVAL_DATE_TIME ( #174, #181 ) ;
#67 = EDGE_LOOP ( 'NONE', ( #62 ) ) ;
#68 = COORDINATED_UNIVERSAL_TIME_OFFSET ( 1, 0, .AHEAD. ) ;
#69 = AXIS2_PLACEMENT_3D ( 'NONE', #195, #217, #114 ) ;
#70 = CARTESIAN_POINT ( 'NONE',  ( -1.499999999999983125, 0.0000000000000000000, 4.858718094417421085 ) ) ;
#71 = EDGE_CURVE ( 'NONE', #41, #41, #65, .T. ) ;
#72 = PLANE ( 'NONE',  #122 ) ;
#73 = CARTESIAN_POINT ( 'NONE',  ( 0.0000000000000000000, 0.0000000000000000000, 0.0000000000000000000 ) ) ;
#74 = DIRECTION ( 'NONE',  ( 0.0000000000000000000, 1.000000000000000000, 0.0000000000000000000 ) ) ;
#75 = DIRECTION ( 'NONE',  ( -4.275831445896958607E-31, -1.000000000000000000, -1.224646799147353207E-16 ) ) ;
#76 = CC_DESIGN_APPROVAL ( #168, ( #192 ) ) ;
#77 = ORIENTED_EDGE ( 'NONE', *, *, #15, .F. ) ;
#78 = DIRECTION ( 'NONE',  ( 1.000000000000000000, 0.0000000000000000000, 0.0000000000000000000 ) ) ;
#79 = DIRECTION ( 'NONE',  ( -1.000000000000000000, 0.0000000000000000000, 3.469446951953614189E-15 ) ) ;
#80 = DATE_AND_TIME ( #121, #172 ) ;
#81 = AXIS2_PLACEMENT_3D ( 'NONE', #9, #87, #94 ) ;
#82 = EDGE_LOOP ( 'NONE', ( #77 ) ) ;
#83 = PERSON_AND_ORGANIZATION ( #18, #59 ) ;
#84 = DIRECTION ( 'NONE',  ( 0.0000000000000000000, 0.0000000000000000000, 1.000000000000000000 ) ) ;
#85 = MANIFOLD_SOLID_BREP ( 'Corps-Déplacer/Copier1[1]', #203 ) ;
#86 = EDGE_CURVE ( 'NONE', #201, #201, #95, .T. ) ;
#87 = DIRECTION ( 'NONE',  ( -3.491481338843133355E-15, 1.224646799147353207E-16, -1.000000000000000000 ) ) ;
#88 = DIRECTION ( 'NONE',  ( -4.275831445896958607E-31, -1.000000000000000000, -1.224646799147353207E-16 ) ) ;
#89 = FACE_OUTER_BOUND ( 'NONE', #49, .T. ) ;
#90 = PRODUCT ( '977793', '977793', '', ( #14 ) ) ;
#91 = FACE_OUTER_BOUND ( 'NONE', #113, .T. ) ;
#92 =( LENGTH_UNIT ( ) NAMED_UNIT ( * ) SI_UNIT ( .MILLI., .METRE. ) );
#93 = EDGE_LOOP ( 'NONE', ( #133 ) ) ;
#94 = DIRECTION ( 'NONE',  ( 4.275831445896959482E-31, 1.000000000000000000, 1.224646799147353207E-16 ) ) ;
#95 = CIRCLE ( 'NONE', #158, 0.8500000000000000888 ) ;
#96 = CARTESIAN_POINT ( 'NONE',  ( 1.696412355735787782E-14, 0.0000000000000000000, 4.858718094417415756 ) ) ;
#97 = SHAPE_DEFINITION_REPRESENTATION ( #182, #191 ) ;
#98 = EDGE_LOOP ( 'NONE', ( #137 ) ) ;
#99 = CALENDAR_DATE ( 2021, 15, 11 ) ;
#100 = PERSON_AND_ORGANIZATION ( #18, #59 ) ;
#101 = ADVANCED_FACE ( 'NONE', ( #24, #91 ), #180, .T. ) ;
#102 = PERSON_AND_ORGANIZATION_ROLE ( 'design_supplier' ) ;
#103 = AXIS2_PLACEMENT_3D ( 'NONE', #73, #149, #22 ) ;
#104 = CC_DESIGN_PERSON_AND_ORGANIZATION_ASSIGNMENT ( #160, #134, ( #90 ) ) ;
#105 = AXIS2_PLACEMENT_3D ( 'NONE', #30, #84, #78 ) ;
#106 = CC_DESIGN_PERSON_AND_ORGANIZATION_ASSIGNMENT ( #50, #102, ( #161 ) ) ;
#107 = CARTESIAN_POINT ( 'NONE',  ( 1.326762908760390423E-13, 1.199999999999995293, 38.00000000000000000 ) ) ;
#108 =( NAMED_UNIT ( * ) SI_UNIT ( $, .STERADIAN. ) SOLID_ANGLE_UNIT ( ) );
#109 = AXIS2_PLACEMENT_3D ( 'NONE', #55, #196, #75 ) ;
#110 = UNCERTAINTY_MEASURE_WITH_UNIT (LENGTH_MEASURE( 1.000000000000000082E-05 ), #92, 'distance_accuracy_value', 'NONE');
#111 = DIRECTION ( 'NONE',  ( 1.000000000000000000, 0.0000000000000000000, -3.571489509364014096E-15 ) ) ;
#112 = DIRECTION ( 'NONE',  ( 3.491481338843133355E-15, -0.0000000000000000000, 1.000000000000000000 ) ) ;
#113 = EDGE_LOOP ( 'NONE', ( #1 ) ) ;
#114 = DIRECTION ( 'NONE',  ( 1.000000000000000000, 0.0000000000000000000, -3.571489509364014096E-15 ) ) ;
#115 = DIRECTION ( 'NONE',  ( -3.491481338843133355E-15, 1.224646799147353207E-16, -1.000000000000000000 ) ) ;
#116 = EDGE_LOOP ( 'NONE', ( #27 ) ) ;
#117 = APPLICATION_PROTOCOL_DEFINITION ( 'international standard', 'config_control_design', 1994, #213 ) ;
#118 = AXIS2_PLACEMENT_3D ( 'NONE', #185, #166, #12 ) ;
#119 = APPROVAL_STATUS ( 'not_yet_approved' ) ;
#120 = LOCAL_TIME ( 9, 48, 57.00000000000000000, #68 ) ;
#121 = CALENDAR_DATE ( 2021, 15, 11 ) ;
#122 = AXIS2_PLACEMENT_3D ( 'NONE', #167, #129, #127 ) ;
#123 = CC_DESIGN_DATE_AND_TIME_ASSIGNMENT ( #156, #33, ( #222 ) ) ;
#124 = MANIFOLD_SOLID_BREP ( 'Corps-Déplacer/Copier1[2]', #35 ) ;
#125 = CIRCLE ( 'NONE', #118, 1.199999999999999956 ) ;
#126 = VERTEX_POINT ( 'NONE', #44 ) ;
#127 = DIRECTION ( 'NONE',  ( 4.275831445896958607E-31, 1.000000000000000000, 1.224646799147353207E-16 ) ) ;
#128 = DIRECTION ( 'NONE',  ( 1.000000000000000000, 0.0000000000000000000, -3.491481338843132961E-15 ) ) ;
#129 = DIRECTION ( 'NONE',  ( -3.491481338843133355E-15, 1.224646799147353207E-16, -1.000000000000000000 ) ) ;
#130 = CARTESIAN_POINT ( 'NONE',  ( -3.206873584422719393E-31, 1.124819836996393206E-32, -9.184850993605149670E-17 ) ) ;
#131 = ORIENTED_EDGE ( 'NONE', *, *, #71, .T. ) ;
#132 = FACE_OUTER_BOUND ( 'NONE', #67, .T. ) ;
#133 = ORIENTED_EDGE ( 'NONE', *, *, #15, .T. ) ;
#134 = PERSON_AND_ORGANIZATION_ROLE ( 'design_owner' ) ;
#135 = APPROVAL_ROLE ( '' ) ;
#136 = CC_DESIGN_APPROVAL ( #181, ( #161 ) ) ;
#137 = ORIENTED_EDGE ( 'NONE', *, *, #177, .T. ) ;
#138 = PERSON_AND_ORGANIZATION ( #18, #59 ) ;
#139 = EDGE_LOOP ( 'NONE', ( #23 ) ) ;
#140 = DATE_TIME_ROLE ( 'classification_date' ) ;
#141 = PERSON_AND_ORGANIZATION_ROLE ( 'creator' ) ;
#142 = ADVANCED_FACE ( 'NONE', ( #194 ), #72, .F. ) ;
#143 = APPROVAL ( #3, 'UNSPECIFIED' ) ;
#144 =( GEOMETRIC_REPRESENTATION_CONTEXT ( 3 ) GLOBAL_UNCERTAINTY_ASSIGNED_CONTEXT ( ( #110 ) ) GLOBAL_UNIT_ASSIGNED_CONTEXT ( ( #92, #176, #108 ) ) REPRESENTATION_CONTEXT ( 'NONE', 'WORKASPACE' ) );
#145 = CARTESIAN_POINT ( 'NONE',  ( 0.8500000000000000888, 0.0000000000000000000, -3.335153177760869585E-15 ) ) ;
#146 = ADVANCED_FACE ( 'NONE', ( #36, #169 ), #212, .T. ) ;
#147 = AXIS2_PLACEMENT_3D ( 'NONE', #215, #26, #11 ) ;
#148 = CARTESIAN_POINT ( 'NONE',  ( 0.8500000000000059730, 0.0000000000000000000, 1.699999999999995737 ) ) ;
#149 = DIRECTION ( 'NONE',  ( 3.491481338843133355E-15, -0.0000000000000000000, 1.000000000000000000 ) ) ;
#150 = DIRECTION ( 'NONE',  ( 1.000000000000000000, 0.0000000000000000000, -3.491481338843133750E-15 ) ) ;
#151 = APPROVAL_PERSON_ORGANIZATION ( #46, #168, #186 ) ;
#152 = FACE_OUTER_BOUND ( 'NONE', #153, .T. ) ;
#153 = EDGE_LOOP ( 'NONE', ( #207 ) ) ;
#154 = COORDINATED_UNIVERSAL_TIME_OFFSET ( 1, 0, .AHEAD. ) ;
#155 = FACE_OUTER_BOUND ( 'NONE', #42, .T. ) ;
#156 = DATE_AND_TIME ( #173, #216 ) ;
#157 = EDGE_LOOP ( 'NONE', ( #200 ) ) ;
#158 = AXIS2_PLACEMENT_3D ( 'NONE', #37, #179, #111 ) ;
#159 = CIRCLE ( 'NONE', #147, 1.499999999999999778 ) ;
#160 = PERSON_AND_ORGANIZATION ( #18, #59 ) ;
#161 = PRODUCT_DEFINITION_FORMATION_WITH_SPECIFIED_SOURCE ( 'ANY', '', #90, .NOT_KNOWN. ) ;
#162 = ADVANCED_FACE ( 'NONE', ( #38, #132 ), #188, .F. ) ;
#163 = PLANE ( 'NONE',  #109 ) ;
#164 = AXIS2_PLACEMENT_3D ( 'NONE', #43, #40, #88 ) ;
#165 = CC_DESIGN_PERSON_AND_ORGANIZATION_ASSIGNMENT ( #100, #141, ( #222 ) ) ;
#166 = DIRECTION ( 'NONE',  ( -3.491481338843133355E-15, 1.224646799147353207E-16, -1.000000000000000000 ) ) ;
#167 = CARTESIAN_POINT ( 'NONE',  ( 1.326762908760390423E-13, 8.998558695971077224E-33, 38.00000000000000000 ) ) ;
#168 = APPROVAL ( #119, 'UNSPECIFIED' ) ;
#169 = FACE_OUTER_BOUND ( 'NONE', #139, .T. ) ;
#170 = DIRECTION ( 'NONE',  ( 3.491481338843133355E-15, -0.0000000000000000000, 1.000000000000000000 ) ) ;
#171 = PERSON_AND_ORGANIZATION ( #18, #59 ) ;
#172 = LOCAL_TIME ( 9, 48, 57.00000000000000000, #52 ) ;
#173 = CALENDAR_DATE ( 2021, 15, 11 ) ;
#174 = DATE_AND_TIME ( #99, #120 ) ;
#175 = AXIS2_PLACEMENT_3D ( 'NONE', #21, #112, #150 ) ;
#176 =( NAMED_UNIT ( * ) PLANE_ANGLE_UNIT ( ) SI_UNIT ( $, .RADIAN. ) );
#177 = EDGE_CURVE ( 'NONE', #126, #126, #159, .T. ) ;
#178 = CIRCLE ( 'NONE', #69, 0.8500000000000000888 ) ;
#179 = DIRECTION ( 'NONE',  ( 3.491481338843133355E-15, -0.0000000000000000000, 1.000000000000000000 ) ) ;
#180 = CYLINDRICAL_SURFACE ( 'NONE', #81, 1.500000000000000000 ) ;
#181 = APPROVAL ( #221, 'UNSPECIFIED' ) ;
#182 = PRODUCT_DEFINITION_SHAPE ( 'NONE', 'NONE',  #222 ) ;
#183 = DIRECTION ( 'NONE',  ( 3.491481338843133355E-15, -0.0000000000000000000, 1.000000000000000000 ) ) ;
#184 = CARTESIAN_POINT ( 'NONE',  ( 1.316288464743861212E-13, -4.616918432785521081E-15, 37.69999999999999574 ) ) ;
#185 = CARTESIAN_POINT ( 'NONE',  ( 1.326762908760390423E-13, -4.653657836759941941E-15, 38.00000000000000000 ) ) ;
#186 = APPROVAL_ROLE ( '' ) ;
#187 = APPROVAL_DATE_TIME ( #80, #143 ) ;
#188 = TOROIDAL_SURFACE ( 'NONE', #175, 8.849999999999999645, 8.000000000000000000 ) ;
#189 = CALENDAR_DATE ( 2021, 15, 11 ) ;
#190 = APPROVAL_ROLE ( '' ) ;
#191 = ADVANCED_BREP_SHAPE_REPRESENTATION ( '977793', ( #85, #124, #105 ), #144 ) ;
#192 = SECURITY_CLASSIFICATION ( '', '', #206 ) ;
#193 = ADVANCED_FACE ( 'NONE', ( #89 ), #163, .T. ) ;
#194 = FACE_OUTER_BOUND ( 'NONE', #82, .T. ) ;
#195 = CARTESIAN_POINT ( 'NONE',  ( 5.935518276033322760E-15, 0.0000000000000000000, 1.699999999999998845 ) ) ;
#196 = DIRECTION ( 'NONE',  ( 3.491481338843133355E-15, -1.224646799147353207E-16, 1.000000000000000000 ) ) ;
#197 = CC_DESIGN_APPROVAL ( #143, ( #222 ) ) ;
#198 = CC_DESIGN_PERSON_AND_ORGANIZATION_ASSIGNMENT ( #204, #31, ( #192 ) ) ;
#199 = DIRECTION ( 'NONE',  ( 4.275831445896958607E-31, 1.000000000000000000, 1.224646799147353207E-16 ) ) ;
#200 = ORIENTED_EDGE ( 'NONE', *, *, #71, .F. ) ;
#201 = VERTEX_POINT ( 'NONE', #148 ) ;
#202 = CALENDAR_DATE ( 2021, 15, 11 ) ;
#203 = CLOSED_SHELL ( 'NONE', ( #101, #146, #142, #162, #34 ) ) ;
#204 = PERSON_AND_ORGANIZATION ( #18, #59 ) ;
#205 = ADVANCED_FACE ( 'NONE', ( #7, #152 ), #58, .T. ) ;
#206 = SECURITY_CLASSIFICATION_LEVEL ( 'unclassified' ) ;
#207 = ORIENTED_EDGE ( 'NONE', *, *, #86, .F. ) ;
#208 = DATE_AND_TIME ( #189, #51 ) ;
#209 = ADVANCED_FACE ( 'NONE', ( #211 ), #218, .T. ) ;
#210 = AXIS2_PLACEMENT_3D ( 'NONE', #184, #20, #74 ) ;
#211 = FACE_OUTER_BOUND ( 'NONE', #157, .T. ) ;
#212 = CONICAL_SURFACE ( 'NONE', #210, 1.499999999999999778, 0.7853981633974453924 ) ;
#213 = APPLICATION_CONTEXT ( 'configuration controlled 3d designs of mechanical parts and assemblies' ) ;
#214 = VERTEX_POINT ( 'NONE', #107 ) ;
#215 = CARTESIAN_POINT ( 'NONE',  ( 1.316288464743861212E-13, -4.616918432785521081E-15, 37.69999999999999574 ) ) ;
#216 = LOCAL_TIME ( 9, 48, 57.00000000000000000, #16 ) ;
#217 = DIRECTION ( 'NONE',  ( 3.491481338843133355E-15, -0.0000000000000000000, 1.000000000000000000 ) ) ;
#218 = PLANE ( 'NONE',  #28 ) ;
#219 = DATE_AND_TIME ( #202, #17 ) ;
#220 = ORIENTED_EDGE ( 'NONE', *, *, #60, .F. ) ;
#221 = APPROVAL_STATUS ( 'not_yet_approved' ) ;
#222 = PRODUCT_DEFINITION ( 'UNKNOWN', '', #161, #56 ) ;
#223 = AXIS2_PLACEMENT_3D ( 'NONE', #96, #170, #79 ) ;
ENDSEC;
END-ISO-10303-21;
