ISO-10303-21;
HEADER;
FILE_DESCRIPTION (( 'STEP AP203' ),
    '1' );
FILE_NAME ('977792.step',
    '2021-11-15T08:48:57',
    ( '' ),
    ( '' ),
    'SwSTEP 2.0',
    'SolidWorks 2019',
    '' );
FILE_SCHEMA (( 'CONFIG_CONTROL_DESIGN' ));
ENDSEC;

DATA;
#1 = AXIS2_PLACEMENT_3D ( 'NONE', #89, #67, #26 ) ;
#2 = CARTESIAN_POINT ( 'NONE',  ( 5.586370142149013368E-15, 0.0000000000000000000, 1.600000000000000089 ) ) ;
#3 = EDGE_LOOP ( 'NONE', ( #51 ) ) ;
#4 = ORIENTED_EDGE ( 'NONE', *, *, #65, .F. ) ;
#5 = FACE_OUTER_BOUND ( 'NONE', #157, .T. ) ;
#6 = ORIENTED_EDGE ( 'NONE', *, *, #189, .T. ) ;
#7 = ADVANCED_FACE ( 'NONE', ( #137, #213 ), #121, .T. ) ;
#8 = MECHANICAL_CONTEXT ( 'NONE', #90, 'mechanical' ) ;
#9 = ORIENTED_EDGE ( 'NONE', *, *, #203, .F. ) ;
#10 = VERTEX_POINT ( 'NONE', #127 ) ;
#11 = EDGE_LOOP ( 'NONE', ( #106 ) ) ;
#12 = DIRECTION ( 'NONE',  ( 0.0000000000000000000, 0.0000000000000000000, 1.000000000000000000 ) ) ;
#13 = DATE_AND_TIME ( #218, #102 ) ;
#14 = DIRECTION ( 'NONE',  ( 0.0000000000000000000, 1.000000000000000000, 0.0000000000000000000 ) ) ;
#15 = AXIS2_PLACEMENT_3D ( 'NONE', #2, #118, #136 ) ;
#16 = CC_DESIGN_DATE_AND_TIME_ASSIGNMENT ( #75, #61, ( #210 ) ) ;
#17 = PERSON_AND_ORGANIZATION_ROLE ( 'design_supplier' ) ;
#18 = COORDINATED_UNIVERSAL_TIME_OFFSET ( 1, 0, .AHEAD. ) ;
#19 = CC_DESIGN_APPROVAL ( #220, ( #126 ) ) ;
#20 = PERSON_AND_ORGANIZATION_ROLE ( 'classification_officer' ) ;
#21 = ORIENTED_EDGE ( 'NONE', *, *, #200, .T. ) ;
#22 = EDGE_LOOP ( 'NONE', ( #21 ) ) ;
#23 = EDGE_LOOP ( 'NONE', ( #93 ) ) ;
#24 = CARTESIAN_POINT ( 'NONE',  ( 5.586370142149013368E-15, -2.312964634635742464E-16, 1.599999999999999867 ) ) ;
#25 = DIRECTION ( 'NONE',  ( -1.000000000000000000, 0.0000000000000000000, 3.469446951953614189E-15 ) ) ;
#26 = DIRECTION ( 'NONE',  ( 1.000000000000000000, 0.0000000000000000000, -3.523657060577887833E-15 ) ) ;
#27 = CIRCLE ( 'NONE', #33, 1.500000000000000000 ) ;
#28 = CLOSED_SHELL ( 'NONE', ( #60, #7, #170 ) ) ;
#29 = CARTESIAN_POINT ( 'NONE',  ( -1.282749433769087582E-30, 0.0000000000000000000, -3.673940397442059375E-16 ) ) ;
#30 = PLANE ( 'NONE',  #161 ) ;
#31 = FACE_OUTER_BOUND ( 'NONE', #22, .T. ) ;
#32 = APPROVAL ( #62, 'UNSPECIFIED' ) ;
#33 = AXIS2_PLACEMENT_3D ( 'NONE', #125, #195, #25 ) ;
#34 = APPROVAL_DATE_TIME ( #100, #220 ) ;
#35 = ADVANCED_FACE ( 'NONE', ( #85, #54 ), #171, .T. ) ;
#36 = CARTESIAN_POINT ( 'NONE',  ( 0.0000000000000000000, 0.0000000000000000000, 0.0000000000000000000 ) ) ;
#37 = CARTESIAN_POINT ( 'NONE',  ( 1.316288464743861212E-13, -4.616918432785521081E-15, 37.69999999999999574 ) ) ;
#38 = CIRCLE ( 'NONE', #64, 0.7999999999999999334 ) ;
#39 = CARTESIAN_POINT ( 'NONE',  ( 0.8000000000000060396, 0.0000000000000000000, 1.599999999999996092 ) ) ;
#40 = VERTEX_POINT ( 'NONE', #107 ) ;
#41 = CC_DESIGN_PERSON_AND_ORGANIZATION_ASSIGNMENT ( #188, #78, ( #126 ) ) ;
#42 = CARTESIAN_POINT ( 'NONE',  ( -1.499999999999983125, 0.0000000000000000000, 4.872613634390717152 ) ) ;
#43 = CARTESIAN_POINT ( 'NONE',  ( 1.316288464743861212E-13, 1.499999999999995337, 37.69999999999999574 ) ) ;
#44 = ADVANCED_FACE ( 'NONE', ( #199, #110 ), #71, .F. ) ;
#45 = AXIS2_PLACEMENT_3D ( 'NONE', #160, #198, #14 ) ;
#46 = PERSON_AND_ORGANIZATION_ROLE ( 'design_owner' ) ;
#47 = PERSON_AND_ORGANIZATION ( #87, #149 ) ;
#48 = AXIS2_PLACEMENT_3D ( 'NONE', #83, #208, #68 ) ;
#49 = ADVANCED_FACE ( 'NONE', ( #120 ), #30, .F. ) ;
#50 = CIRCLE ( 'NONE', #1, 0.8000000000000003775 ) ;
#51 = ORIENTED_EDGE ( 'NONE', *, *, #200, .F. ) ;
#52 = UNCERTAINTY_MEASURE_WITH_UNIT (LENGTH_MEASURE( 1.000000000000000082E-05 ), #182, 'distance_accuracy_value', 'NONE');
#53 = DIRECTION ( 'NONE',  ( 3.491481338843133355E-15, -1.224646799147353207E-16, 1.000000000000000000 ) ) ;
#54 = FACE_OUTER_BOUND ( 'NONE', #3, .T. ) ;
#55 = DIRECTION ( 'NONE',  ( 1.000000000000000000, 0.0000000000000000000, 0.0000000000000000000 ) ) ;
#56 = LOCAL_TIME ( 9, 48, 57.00000000000000000, #114 ) ;
#57 = DIRECTION ( 'NONE',  ( 3.491481338843133355E-15, -0.0000000000000000000, 1.000000000000000000 ) ) ;
#58 = CARTESIAN_POINT ( 'NONE',  ( 1.326762908760390423E-13, 1.199999999999995293, 38.00000000000000000 ) ) ;
#59 = APPROVAL_PERSON_ORGANIZATION ( #144, #32, #168 ) ;
#60 = ADVANCED_FACE ( 'NONE', ( #104 ), #173, .T. ) ;
#61 = DATE_TIME_ROLE ( 'classification_date' ) ;
#62 = APPROVAL_STATUS ( 'not_yet_approved' ) ;
#63 = SHAPE_DEFINITION_REPRESENTATION ( #134, #194 ) ;
#64 = AXIS2_PLACEMENT_3D ( 'NONE', #29, #57, #159 ) ;
#65 = EDGE_CURVE ( 'NONE', #216, #216, #92, .T. ) ;
#66 = APPROVAL_PERSON_ORGANIZATION ( #167, #179, #201 ) ;
#67 = DIRECTION ( 'NONE',  ( 3.491481338843133355E-15, -0.0000000000000000000, 1.000000000000000000 ) ) ;
#68 = DIRECTION ( 'NONE',  ( -4.275831445896958607E-31, -1.000000000000000000, -1.224646799147353207E-16 ) ) ;
#69 = DIRECTION ( 'NONE',  ( -3.491481338843133355E-15, 1.224646799147353207E-16, -1.000000000000000000 ) ) ;
#70 = DIRECTION ( 'NONE',  ( -3.491481338843133355E-15, 1.224646799147353207E-16, -1.000000000000000000 ) ) ;
#71 = TOROIDAL_SURFACE ( 'NONE', #15, 8.800000000000000711, 8.000000000000000000 ) ;
#72 = PERSON_AND_ORGANIZATION ( #87, #149 ) ;
#73 = LOCAL_TIME ( 9, 48, 57.00000000000000000, #113 ) ;
#74 = COORDINATED_UNIVERSAL_TIME_OFFSET ( 1, 0, .AHEAD. ) ;
#75 = DATE_AND_TIME ( #165, #73 ) ;
#76 = ADVANCED_FACE ( 'NONE', ( #31, #5 ), #123, .T. ) ;
#77 = AXIS2_PLACEMENT_3D ( 'NONE', #24, #53, #86 ) ;
#78 = PERSON_AND_ORGANIZATION_ROLE ( 'creator' ) ;
#79 = CC_DESIGN_APPROVAL ( #32, ( #112 ) ) ;
#80 = EDGE_LOOP ( 'NONE', ( #152 ) ) ;
#81 = AXIS2_PLACEMENT_3D ( 'NONE', #140, #196, #180 ) ;
#82 = EDGE_LOOP ( 'NONE', ( #205 ) ) ;
#83 = CARTESIAN_POINT ( 'NONE',  ( 5.586370142149013368E-15, -2.312964634635742464E-16, 1.599999999999999867 ) ) ;
#84 = LOCAL_TIME ( 9, 48, 57.00000000000000000, #148 ) ;
#85 = FACE_BOUND ( 'NONE', #23, .T. ) ;
#86 = DIRECTION ( 'NONE',  ( -4.275831445896958607E-31, -1.000000000000000000, -1.224646799147353207E-16 ) ) ;
#87 = PERSON ( 'UNSPECIFIED', 'UNSPECIFIED', 'UNSPECIFIED', ('UNSPECIFIED'), ('UNSPECIFIED'), ('UNSPECIFIED') ) ;
#88 = CC_DESIGN_PERSON_AND_ORGANIZATION_ASSIGNMENT ( #169, #20, ( #210 ) ) ;
#89 = CARTESIAN_POINT ( 'NONE',  ( 5.586370142149010213E-15, 0.0000000000000000000, 1.599999999999998979 ) ) ;
#90 = APPLICATION_CONTEXT ( 'configuration controlled 3d designs of mechanical parts and assemblies' ) ;
#91 = FACE_OUTER_BOUND ( 'NONE', #116, .T. ) ;
#92 = CIRCLE ( 'NONE', #117, 0.8000000000000003775 ) ;
#93 = ORIENTED_EDGE ( 'NONE', *, *, #129, .T. ) ;
#94 = CARTESIAN_POINT ( 'NONE',  ( 0.0000000000000000000, 0.0000000000000000000, 0.0000000000000000000 ) ) ;
#95 = DATE_AND_TIME ( #111, #215 ) ;
#96 = CALENDAR_DATE ( 2021, 15, 11 ) ;
#97 = CC_DESIGN_SECURITY_CLASSIFICATION ( #210, ( #112 ) ) ;
#98 = CC_DESIGN_DATE_AND_TIME_ASSIGNMENT ( #95, #145, ( #126 ) ) ;
#99 = APPLICATION_PROTOCOL_DEFINITION ( 'international standard', 'config_control_design', 1994, #103 ) ;
#100 = DATE_AND_TIME ( #128, #56 ) ;
#101 = AXIS2_PLACEMENT_3D ( 'NONE', #214, #69, #212 ) ;
#102 = LOCAL_TIME ( 9, 48, 57.00000000000000000, #18 ) ;
#103 = APPLICATION_CONTEXT ( 'configuration controlled 3d designs of mechanical parts and assemblies' ) ;
#104 = FACE_OUTER_BOUND ( 'NONE', #150, .T. ) ;
#105 = DIRECTION ( 'NONE',  ( 3.491481338843133355E-15, -0.0000000000000000000, 1.000000000000000000 ) ) ;
#106 = ORIENTED_EDGE ( 'NONE', *, *, #189, .F. ) ;
#107 = CARTESIAN_POINT ( 'NONE',  ( 0.7999999999999999334, 0.0000000000000000000, -3.160579110818712523E-15 ) ) ;
#108 = APPROVAL_PERSON_ORGANIZATION ( #202, #220, #143 ) ;
#109 = PLANE ( 'NONE',  #175 ) ;
#110 = FACE_OUTER_BOUND ( 'NONE', #155, .T. ) ;
#111 = CALENDAR_DATE ( 2021, 15, 11 ) ;
#112 = PRODUCT_DEFINITION_FORMATION_WITH_SPECIFIED_SOURCE ( 'ANY', '', #223, .NOT_KNOWN. ) ;
#113 = COORDINATED_UNIVERSAL_TIME_OFFSET ( 1, 0, .AHEAD. ) ;
#114 = COORDINATED_UNIVERSAL_TIME_OFFSET ( 1, 0, .AHEAD. ) ;
#115 = DIRECTION ( 'NONE',  ( 3.491481338843133355E-15, -0.0000000000000000000, 1.000000000000000000 ) ) ;
#116 = EDGE_LOOP ( 'NONE', ( #4 ) ) ;
#117 = AXIS2_PLACEMENT_3D ( 'NONE', #204, #115, #153 ) ;
#118 = DIRECTION ( 'NONE',  ( 3.491481338843133355E-15, -0.0000000000000000000, 1.000000000000000000 ) ) ;
#119 = CLOSED_SHELL ( 'NONE', ( #76, #35, #49, #44, #209 ) ) ;
#120 = FACE_OUTER_BOUND ( 'NONE', #135, .T. ) ;
#121 = CYLINDRICAL_SURFACE ( 'NONE', #131, 0.8000000000000001554 ) ;
#122 = VERTEX_POINT ( 'NONE', #43 ) ;
#123 = CYLINDRICAL_SURFACE ( 'NONE', #81, 1.500000000000000000 ) ;
#124 = VERTEX_POINT ( 'NONE', #42 ) ;
#125 = CARTESIAN_POINT ( 'NONE',  ( 1.701263957586779153E-14, 0.0000000000000000000, 4.872613634390712711 ) ) ;
#126 = PRODUCT_DEFINITION ( 'UNKNOWN', '', #112, #192 ) ;
#127 = CARTESIAN_POINT ( 'NONE',  ( 0.8000000000000060396, 0.0000000000000000000, 1.599999999999996092 ) ) ;
#128 = CALENDAR_DATE ( 2021, 15, 11 ) ;
#129 = EDGE_CURVE ( 'NONE', #197, #197, #184, .T. ) ;
#130 = APPROVAL_STATUS ( 'not_yet_approved' ) ;
#131 = AXIS2_PLACEMENT_3D ( 'NONE', #36, #105, #176 ) ;
#132 = MANIFOLD_SOLID_BREP ( 'Corps-Déplacer/Copier1[1]', #119 ) ;
#133 = PERSON_AND_ORGANIZATION ( #87, #149 ) ;
#134 = PRODUCT_DEFINITION_SHAPE ( 'NONE', 'NONE',  #126 ) ;
#135 = EDGE_LOOP ( 'NONE', ( #174 ) ) ;
#136 = DIRECTION ( 'NONE',  ( 1.000000000000000000, 0.0000000000000000000, -3.491481338843133750E-15 ) ) ;
#137 = FACE_OUTER_BOUND ( 'NONE', #82, .T. ) ;
#138 = DIRECTION ( 'NONE',  ( 0.0000000000000000000, 1.000000000000000000, 0.0000000000000000000 ) ) ;
#139 = EDGE_LOOP ( 'NONE', ( #9 ) ) ;
#140 = CARTESIAN_POINT ( 'NONE',  ( 0.0000000000000000000, 0.0000000000000000000, 0.0000000000000000000 ) ) ;
#141 = CC_DESIGN_PERSON_AND_ORGANIZATION_ASSIGNMENT ( #133, #221, ( #112 ) ) ;
#142 = APPLICATION_PROTOCOL_DEFINITION ( 'international standard', 'config_control_design', 1994, #90 ) ;
#143 = APPROVAL_ROLE ( '' ) ;
#144 = PERSON_AND_ORGANIZATION ( #87, #149 ) ;
#145 = DATE_TIME_ROLE ( 'creation_date' ) ;
#146 = DATE_AND_TIME ( #96, #84 ) ;
#147 = CIRCLE ( 'NONE', #181, 1.499999999999999778 ) ;
#148 = COORDINATED_UNIVERSAL_TIME_OFFSET ( 1, 0, .AHEAD. ) ;
#149 = ORGANIZATION ( 'UNSPECIFIED', 'UNSPECIFIED', '' ) ;
#150 = EDGE_LOOP ( 'NONE', ( #211 ) ) ;
#151 = EDGE_CURVE ( 'NONE', #10, #10, #50, .T. ) ;
#152 = ORIENTED_EDGE ( 'NONE', *, *, #151, .F. ) ;
#153 = DIRECTION ( 'NONE',  ( 1.000000000000000000, 0.0000000000000000000, -3.523657060577887833E-15 ) ) ;
#154 = DIRECTION ( 'NONE',  ( -3.491481338843133355E-15, 1.224646799147353207E-16, -1.000000000000000000 ) ) ;
#155 = EDGE_LOOP ( 'NONE', ( #190 ) ) ;
#156 = AXIS2_PLACEMENT_3D ( 'NONE', #94, #12, #55 ) ;
#157 = EDGE_LOOP ( 'NONE', ( #6 ) ) ;
#158 = CARTESIAN_POINT ( 'NONE',  ( -3.206873584422719393E-31, 1.124819836996393206E-32, -9.184850993605149670E-17 ) ) ;
#159 = DIRECTION ( 'NONE',  ( 1.000000000000000000, 0.0000000000000000000, -3.491481338843133750E-15 ) ) ;
#160 = CARTESIAN_POINT ( 'NONE',  ( 1.316288464743861212E-13, -4.616918432785521081E-15, 37.69999999999999574 ) ) ;
#161 = AXIS2_PLACEMENT_3D ( 'NONE', #166, #154, #191 ) ;
#162 =( NAMED_UNIT ( * ) PLANE_ANGLE_UNIT ( ) SI_UNIT ( $, .RADIAN. ) );
#163 = PRODUCT_RELATED_PRODUCT_CATEGORY ( 'detail', '', ( #223 ) ) ;
#164 = DIRECTION ( 'NONE',  ( -3.491481338843133355E-15, 1.224646799147353207E-16, -1.000000000000000000 ) ) ;
#165 = CALENDAR_DATE ( 2021, 15, 11 ) ;
#166 = CARTESIAN_POINT ( 'NONE',  ( 1.326762908760390423E-13, 8.998558695971077224E-33, 38.00000000000000000 ) ) ;
#167 = PERSON_AND_ORGANIZATION ( #87, #149 ) ;
#168 = APPROVAL_ROLE ( '' ) ;
#169 = PERSON_AND_ORGANIZATION ( #87, #149 ) ;
#170 = ADVANCED_FACE ( 'NONE', ( #193 ), #109, .T. ) ;
#171 = CONICAL_SURFACE ( 'NONE', #45, 1.499999999999999778, 0.7853981633974453924 ) ;
#172 = CC_DESIGN_PERSON_AND_ORGANIZATION_ASSIGNMENT ( #72, #17, ( #112 ) ) ;
#173 = PLANE ( 'NONE',  #48 ) ;
#174 = ORIENTED_EDGE ( 'NONE', *, *, #129, .F. ) ;
#175 = AXIS2_PLACEMENT_3D ( 'NONE', #158, #164, #183 ) ;
#176 = DIRECTION ( 'NONE',  ( 1.000000000000000000, 0.0000000000000000000, -3.491481338843133355E-15 ) ) ;
#177 =( NAMED_UNIT ( * ) SI_UNIT ( $, .STERADIAN. ) SOLID_ANGLE_UNIT ( ) );
#178 = CC_DESIGN_APPROVAL ( #179, ( #210 ) ) ;
#179 = APPROVAL ( #130, 'UNSPECIFIED' ) ;
#180 = DIRECTION ( 'NONE',  ( 4.275831445896959482E-31, 1.000000000000000000, 1.224646799147353207E-16 ) ) ;
#181 = AXIS2_PLACEMENT_3D ( 'NONE', #37, #70, #138 ) ;
#182 =( LENGTH_UNIT ( ) NAMED_UNIT ( * ) SI_UNIT ( .MILLI., .METRE. ) );
#183 = DIRECTION ( 'NONE',  ( 4.275831445896958607E-31, 1.000000000000000000, 1.224646799147353207E-16 ) ) ;
#184 = CIRCLE ( 'NONE', #101, 1.199999999999999956 ) ;
#185 = APPROVAL_STATUS ( 'not_yet_approved' ) ;
#186 = CC_DESIGN_PERSON_AND_ORGANIZATION_ASSIGNMENT ( #47, #46, ( #223 ) ) ;
#187 = APPROVAL_DATE_TIME ( #13, #179 ) ;
#188 = PERSON_AND_ORGANIZATION ( #87, #149 ) ;
#189 = EDGE_CURVE ( 'NONE', #124, #124, #27, .T. ) ;
#190 = ORIENTED_EDGE ( 'NONE', *, *, #65, .T. ) ;
#191 = DIRECTION ( 'NONE',  ( 4.275831445896958607E-31, 1.000000000000000000, 1.224646799147353207E-16 ) ) ;
#192 = DESIGN_CONTEXT ( 'detailed design', #103, 'design' ) ;
#193 = FACE_OUTER_BOUND ( 'NONE', #139, .T. ) ;
#194 = ADVANCED_BREP_SHAPE_REPRESENTATION ( '977792', ( #132, #206, #156 ), #207 ) ;
#195 = DIRECTION ( 'NONE',  ( 3.491481338843133355E-15, -0.0000000000000000000, 1.000000000000000000 ) ) ;
#196 = DIRECTION ( 'NONE',  ( -3.491481338843133355E-15, 1.224646799147353207E-16, -1.000000000000000000 ) ) ;
#197 = VERTEX_POINT ( 'NONE', #58 ) ;
#198 = DIRECTION ( 'NONE',  ( -3.491481338843133355E-15, 1.224646799147353207E-16, -1.000000000000000000 ) ) ;
#199 = FACE_OUTER_BOUND ( 'NONE', #11, .T. ) ;
#200 = EDGE_CURVE ( 'NONE', #122, #122, #147, .T. ) ;
#201 = APPROVAL_ROLE ( '' ) ;
#202 = PERSON_AND_ORGANIZATION ( #87, #149 ) ;
#203 = EDGE_CURVE ( 'NONE', #40, #40, #38, .T. ) ;
#204 = CARTESIAN_POINT ( 'NONE',  ( 5.586370142149010213E-15, 0.0000000000000000000, 1.599999999999998979 ) ) ;
#205 = ORIENTED_EDGE ( 'NONE', *, *, #203, .T. ) ;
#206 = MANIFOLD_SOLID_BREP ( 'Corps-Déplacer/Copier1[2]', #28 ) ;
#207 =( GEOMETRIC_REPRESENTATION_CONTEXT ( 3 ) GLOBAL_UNCERTAINTY_ASSIGNED_CONTEXT ( ( #52 ) ) GLOBAL_UNIT_ASSIGNED_CONTEXT ( ( #182, #162, #177 ) ) REPRESENTATION_CONTEXT ( 'NONE', 'WORKASPACE' ) );
#208 = DIRECTION ( 'NONE',  ( 3.491481338843133355E-15, -1.224646799147353207E-16, 1.000000000000000000 ) ) ;
#209 = ADVANCED_FACE ( 'NONE', ( #91 ), #217, .F. ) ;
#210 = SECURITY_CLASSIFICATION ( '', '', #219 ) ;
#211 = ORIENTED_EDGE ( 'NONE', *, *, #151, .T. ) ;
#212 = DIRECTION ( 'NONE',  ( 0.0000000000000000000, 1.000000000000000000, 0.0000000000000000000 ) ) ;
#213 = FACE_OUTER_BOUND ( 'NONE', #80, .T. ) ;
#214 = CARTESIAN_POINT ( 'NONE',  ( 1.326762908760390423E-13, -4.653657836759941941E-15, 38.00000000000000000 ) ) ;
#215 = LOCAL_TIME ( 9, 48, 57.00000000000000000, #74 ) ;
#216 = VERTEX_POINT ( 'NONE', #39 ) ;
#217 = PLANE ( 'NONE',  #77 ) ;
#218 = CALENDAR_DATE ( 2021, 15, 11 ) ;
#219 = SECURITY_CLASSIFICATION_LEVEL ( 'unclassified' ) ;
#220 = APPROVAL ( #185, 'UNSPECIFIED' ) ;
#221 = PERSON_AND_ORGANIZATION_ROLE ( 'creator' ) ;
#222 = APPROVAL_DATE_TIME ( #146, #32 ) ;
#223 = PRODUCT ( '977792', '977792', '', ( #8 ) ) ;
ENDSEC;
END-ISO-10303-21;
