ISO-10303-21;
HEADER;
FILE_DESCRIPTION (( 'STEP AP203' ),
    '1' );
FILE_NAME ('977791.step',
    '2021-11-15T08:48:56',
    ( '' ),
    ( '' ),
    'SwSTEP 2.0',
    'SolidWorks 2019',
    '' );
FILE_SCHEMA (( 'CONFIG_CONTROL_DESIGN' ));
ENDSEC;

DATA;
#1 = CARTESIAN_POINT ( 'NONE',  ( 1.326762908760390423E-13, 8.998558695971077224E-33, 38.00000000000000000 ) ) ;
#2 = ORIENTED_EDGE ( 'NONE', *, *, #115, .F. ) ;
#3 = ADVANCED_FACE ( 'NONE', ( #39 ), #203, .T. ) ;
#4 = CARTESIAN_POINT ( 'NONE',  ( 1.316288464743861212E-13, -4.616918432785521081E-15, 37.69999999999999574 ) ) ;
#5 = AXIS2_PLACEMENT_3D ( 'NONE', #4, #195, #197 ) ;
#6 = ADVANCED_FACE ( 'NONE', ( #103 ), #156, .T. ) ;
#7 = CARTESIAN_POINT ( 'NONE',  ( 5.237222008264700033E-15, 0.0000000000000000000, 1.500000000000000000 ) ) ;
#8 = DIRECTION ( 'NONE',  ( 3.491481338843133355E-15, -0.0000000000000000000, 1.000000000000000000 ) ) ;
#9 = PRODUCT_DEFINITION_FORMATION_WITH_SPECIFIED_SOURCE ( 'ANY', '', #106, .NOT_KNOWN. ) ;
#10 = ADVANCED_FACE ( 'NONE', ( #93, #69 ), #117, .T. ) ;
#11 = PERSON_AND_ORGANIZATION_ROLE ( 'design_owner' ) ;
#12 = MECHANICAL_CONTEXT ( 'NONE', #36, 'mechanical' ) ;
#13 = DIRECTION ( 'NONE',  ( 3.491481338843133355E-15, -0.0000000000000000000, 1.000000000000000000 ) ) ;
#14 = FACE_BOUND ( 'NONE', #191, .T. ) ;
#15 = DIRECTION ( 'NONE',  ( -3.491481338843133355E-15, 1.224646799147353207E-16, -1.000000000000000000 ) ) ;
#16 = CC_DESIGN_PERSON_AND_ORGANIZATION_ASSIGNMENT ( #23, #205, ( #72 ) ) ;
#17 = SHAPE_DEFINITION_REPRESENTATION ( #48, #38 ) ;
#18 = CALENDAR_DATE ( 2021, 15, 11 ) ;
#19 = APPROVAL_PERSON_ORGANIZATION ( #154, #159, #89 ) ;
#20 = DIRECTION ( 'NONE',  ( 4.275831445896958607E-31, 1.000000000000000000, 1.224646799147353207E-16 ) ) ;
#21 = APPROVAL_DATE_TIME ( #94, #164 ) ;
#22 = DIRECTION ( 'NONE',  ( -3.491481338843133355E-15, 1.224646799147353207E-16, -1.000000000000000000 ) ) ;
#23 = PERSON_AND_ORGANIZATION ( #171, #116 ) ;
#24 = CARTESIAN_POINT ( 'NONE',  ( 1.326762908760390423E-13, -4.653657836759941941E-15, 38.00000000000000000 ) ) ;
#25 = DATE_TIME_ROLE ( 'classification_date' ) ;
#26 = CARTESIAN_POINT ( 'NONE',  ( 1.316288464743861212E-13, 1.499999999999995337, 37.69999999999999574 ) ) ;
#27 = CC_DESIGN_SECURITY_CLASSIFICATION ( #72, ( #9 ) ) ;
#28 = CARTESIAN_POINT ( 'NONE',  ( 0.7500000000000058842, 0.0000000000000000000, 1.499999999999996447 ) ) ;
#29 = CLOSED_SHELL ( 'NONE', ( #155, #67, #61, #215, #84 ) ) ;
#30 = DIRECTION ( 'NONE',  ( 1.000000000000000000, 0.0000000000000000000, 0.0000000000000000000 ) ) ;
#31 = PRODUCT_DEFINITION ( 'UNKNOWN', '', #9, #141 ) ;
#32 = APPROVAL_DATE_TIME ( #50, #217 ) ;
#33 = TOROIDAL_SURFACE ( 'NONE', #214, 8.750000000000000000, 8.000000000000000000 ) ;
#34 = CALENDAR_DATE ( 2021, 15, 11 ) ;
#35 = DIRECTION ( 'NONE',  ( 0.0000000000000000000, 1.000000000000000000, 0.0000000000000000000 ) ) ;
#36 = APPLICATION_CONTEXT ( 'configuration controlled 3d designs of mechanical parts and assemblies' ) ;
#37 = EDGE_LOOP ( 'NONE', ( #207 ) ) ;
#38 = ADVANCED_BREP_SHAPE_REPRESENTATION ( '977791', ( #65, #137, #152 ), #64 ) ;
#39 = FACE_OUTER_BOUND ( 'NONE', #175, .T. ) ;
#40 = DIRECTION ( 'NONE',  ( -4.275831445896958607E-31, -1.000000000000000000, -1.224646799147353207E-16 ) ) ;
#41 = ORIENTED_EDGE ( 'NONE', *, *, #150, .F. ) ;
#42 = CARTESIAN_POINT ( 'NONE',  ( 5.237222008264696089E-15, 0.0000000000000000000, 1.499999999999998890 ) ) ;
#43 =( NAMED_UNIT ( * ) PLANE_ANGLE_UNIT ( ) SI_UNIT ( $, .RADIAN. ) );
#44 = CARTESIAN_POINT ( 'NONE',  ( -1.499999999999982903, 0.0000000000000000000, 4.881937314617172952 ) ) ;
#45 = DATE_TIME_ROLE ( 'creation_date' ) ;
#46 = CIRCLE ( 'NONE', #174, 0.7500000000000006661 ) ;
#47 = APPROVAL_STATUS ( 'not_yet_approved' ) ;
#48 = PRODUCT_DEFINITION_SHAPE ( 'NONE', 'NONE',  #31 ) ;
#49 = ORIENTED_EDGE ( 'NONE', *, *, #139, .F. ) ;
#50 = DATE_AND_TIME ( #34, #99 ) ;
#51 = ORIENTED_EDGE ( 'NONE', *, *, #139, .T. ) ;
#52 = COORDINATED_UNIVERSAL_TIME_OFFSET ( 1, 0, .AHEAD. ) ;
#53 = AXIS2_PLACEMENT_3D ( 'NONE', #1, #15, #208 ) ;
#54 = EDGE_LOOP ( 'NONE', ( #49 ) ) ;
#55 = FACE_OUTER_BOUND ( 'NONE', #118, .T. ) ;
#56 = COORDINATED_UNIVERSAL_TIME_OFFSET ( 1, 0, .AHEAD. ) ;
#57 = CARTESIAN_POINT ( 'NONE',  ( 0.0000000000000000000, 0.0000000000000000000, 0.0000000000000000000 ) ) ;
#58 = CALENDAR_DATE ( 2021, 15, 11 ) ;
#59 = VERTEX_POINT ( 'NONE', #26 ) ;
#60 = LOCAL_TIME ( 9, 48, 56.00000000000000000, #108 ) ;
#61 = ADVANCED_FACE ( 'NONE', ( #55 ), #177, .F. ) ;
#62 = DIRECTION ( 'NONE',  ( 3.491481338843133355E-15, -0.0000000000000000000, 1.000000000000000000 ) ) ;
#63 = CC_DESIGN_PERSON_AND_ORGANIZATION_ASSIGNMENT ( #170, #82, ( #9 ) ) ;
#64 =( GEOMETRIC_REPRESENTATION_CONTEXT ( 3 ) GLOBAL_UNCERTAINTY_ASSIGNED_CONTEXT ( ( #173 ) ) GLOBAL_UNIT_ASSIGNED_CONTEXT ( ( #130, #43, #112 ) ) REPRESENTATION_CONTEXT ( 'NONE', 'WORKASPACE' ) );
#65 = MANIFOLD_SOLID_BREP ( 'Corps-Déplacer/Copier1[1]', #29 ) ;
#66 = DIRECTION ( 'NONE',  ( 0.0000000000000000000, 1.000000000000000000, 0.0000000000000000000 ) ) ;
#67 = ADVANCED_FACE ( 'NONE', ( #14, #90 ), #109, .T. ) ;
#68 = AXIS2_PLACEMENT_3D ( 'NONE', #193, #221, #40 ) ;
#69 = FACE_OUTER_BOUND ( 'NONE', #70, .T. ) ;
#70 = EDGE_LOOP ( 'NONE', ( #181 ) ) ;
#71 = EDGE_LOOP ( 'NONE', ( #142 ) ) ;
#72 = SECURITY_CLASSIFICATION ( '', '', #182 ) ;
#73 = CARTESIAN_POINT ( 'NONE',  ( 5.237222008264696089E-15, 0.0000000000000000000, 1.499999999999998890 ) ) ;
#74 = ORIENTED_EDGE ( 'NONE', *, *, #104, .T. ) ;
#75 = DIRECTION ( 'NONE',  ( 1.000000000000000000, 0.0000000000000000000, -3.491481338843133355E-15 ) ) ;
#76 = VERTEX_POINT ( 'NONE', #28 ) ;
#77 = PRODUCT_RELATED_PRODUCT_CATEGORY ( 'detail', '', ( #106 ) ) ;
#78 = CARTESIAN_POINT ( 'NONE',  ( 0.7500000000000058842, 0.0000000000000000000, 1.499999999999996447 ) ) ;
#79 = CC_DESIGN_APPROVAL ( #159, ( #31 ) ) ;
#80 = LOCAL_TIME ( 9, 48, 56.00000000000000000, #52 ) ;
#81 = AXIS2_PLACEMENT_3D ( 'NONE', #187, #151, #168 ) ;
#82 = PERSON_AND_ORGANIZATION_ROLE ( 'creator' ) ;
#83 = CC_DESIGN_DATE_AND_TIME_ASSIGNMENT ( #120, #25, ( #72 ) ) ;
#84 = ADVANCED_FACE ( 'NONE', ( #122 ), #158, .F. ) ;
#85 = EDGE_LOOP ( 'NONE', ( #121 ) ) ;
#86 = PERSON_AND_ORGANIZATION ( #171, #116 ) ;
#87 = CC_DESIGN_APPROVAL ( #217, ( #9 ) ) ;
#88 = DIRECTION ( 'NONE',  ( -3.491481338843133355E-15, 1.224646799147353207E-16, -1.000000000000000000 ) ) ;
#89 = APPROVAL_ROLE ( '' ) ;
#90 = FACE_OUTER_BOUND ( 'NONE', #54, .T. ) ;
#91 = CARTESIAN_POINT ( 'NONE',  ( 5.237222008264700033E-15, -2.168404344971008621E-16, 1.500000000000000000 ) ) ;
#92 = APPROVAL_STATUS ( 'not_yet_approved' ) ;
#93 = FACE_OUTER_BOUND ( 'NONE', #71, .T. ) ;
#94 = DATE_AND_TIME ( #123, #60 ) ;
#95 = CIRCLE ( 'NONE', #194, 0.7500000000000006661 ) ;
#96 = DIRECTION ( 'NONE',  ( 1.000000000000000000, 0.0000000000000000000, -3.491481338843133355E-15 ) ) ;
#97 = VERTEX_POINT ( 'NONE', #78 ) ;
#98 = VERTEX_POINT ( 'NONE', #44 ) ;
#99 = LOCAL_TIME ( 9, 48, 56.00000000000000000, #188 ) ;
#100 = PERSON_AND_ORGANIZATION ( #171, #116 ) ;
#101 = DIRECTION ( 'NONE',  ( 1.000000000000000000, 0.0000000000000000000, -3.491481338843133355E-15 ) ) ;
#102 = APPROVAL_ROLE ( '' ) ;
#103 = FACE_OUTER_BOUND ( 'NONE', #206, .T. ) ;
#104 = EDGE_CURVE ( 'NONE', #76, #76, #46, .T. ) ;
#105 = DIRECTION ( 'NONE',  ( 3.491481338843133355E-15, -0.0000000000000000000, 1.000000000000000000 ) ) ;
#106 = PRODUCT ( '977791', '977791', '', ( #12 ) ) ;
#107 = EDGE_CURVE ( 'NONE', #98, #98, #124, .T. ) ;
#108 = COORDINATED_UNIVERSAL_TIME_OFFSET ( 1, 0, .AHEAD. ) ;
#109 = CONICAL_SURFACE ( 'NONE', #184, 1.499999999999999778, 0.7853981633974453924 ) ;
#110 = ORIENTED_EDGE ( 'NONE', *, *, #150, .T. ) ;
#111 = FACE_OUTER_BOUND ( 'NONE', #37, .T. ) ;
#112 =( NAMED_UNIT ( * ) SI_UNIT ( $, .STERADIAN. ) SOLID_ANGLE_UNIT ( ) );
#113 = CLOSED_SHELL ( 'NONE', ( #6, #10, #3 ) ) ;
#114 = APPROVAL_PERSON_ORGANIZATION ( #163, #164, #102 ) ;
#115 = EDGE_CURVE ( 'NONE', #209, #209, #201, .T. ) ;
#116 = ORGANIZATION ( 'UNSPECIFIED', 'UNSPECIFIED', '' ) ;
#117 = CYLINDRICAL_SURFACE ( 'NONE', #166, 0.7500000000000004441 ) ;
#118 = EDGE_LOOP ( 'NONE', ( #41 ) ) ;
#119 = AXIS2_PLACEMENT_3D ( 'NONE', #24, #148, #66 ) ;
#120 = DATE_AND_TIME ( #58, #80 ) ;
#121 = ORIENTED_EDGE ( 'NONE', *, *, #107, .T. ) ;
#122 = FACE_OUTER_BOUND ( 'NONE', #204, .T. ) ;
#123 = CALENDAR_DATE ( 2021, 15, 11 ) ;
#124 = CIRCLE ( 'NONE', #81, 1.500000000000000000 ) ;
#125 = DIRECTION ( 'NONE',  ( 0.0000000000000000000, 0.0000000000000000000, 1.000000000000000000 ) ) ;
#126 = CALENDAR_DATE ( 2021, 15, 11 ) ;
#127 = VERTEX_POINT ( 'NONE', #153 ) ;
#128 = DIRECTION ( 'NONE',  ( 4.275831445896959482E-31, 1.000000000000000000, 1.224646799147353207E-16 ) ) ;
#129 = CIRCLE ( 'NONE', #5, 1.499999999999999778 ) ;
#130 =( LENGTH_UNIT ( ) NAMED_UNIT ( * ) SI_UNIT ( .MILLI., .METRE. ) );
#131 = APPROVAL_DATE_TIME ( #149, #159 ) ;
#132 = FACE_OUTER_BOUND ( 'NONE', #192, .T. ) ;
#133 = APPLICATION_PROTOCOL_DEFINITION ( 'international standard', 'config_control_design', 1994, #161 ) ;
#134 = AXIS2_PLACEMENT_3D ( 'NONE', #176, #22, #20 ) ;
#135 = DATE_AND_TIME ( #126, #202 ) ;
#136 = CC_DESIGN_PERSON_AND_ORGANIZATION_ASSIGNMENT ( #199, #213, ( #31 ) ) ;
#137 = MANIFOLD_SOLID_BREP ( 'Corps-Déplacer/Copier1[2]', #113 ) ;
#138 = PERSON_AND_ORGANIZATION_ROLE ( 'design_supplier' ) ;
#139 = EDGE_CURVE ( 'NONE', #59, #59, #129, .T. ) ;
#140 = APPROVAL_PERSON_ORGANIZATION ( #86, #217, #218 ) ;
#141 = DESIGN_CONTEXT ( 'detailed design', #161, 'design' ) ;
#142 = ORIENTED_EDGE ( 'NONE', *, *, #115, .T. ) ;
#143 = AXIS2_PLACEMENT_3D ( 'NONE', #167, #62, #96 ) ;
#144 = COORDINATED_UNIVERSAL_TIME_OFFSET ( 1, 0, .AHEAD. ) ;
#145 = CARTESIAN_POINT ( 'NONE',  ( 0.0000000000000000000, 0.0000000000000000000, 0.0000000000000000000 ) ) ;
#146 = DIRECTION ( 'NONE',  ( -4.275831445896958607E-31, -1.000000000000000000, -1.224646799147353207E-16 ) ) ;
#147 = FACE_OUTER_BOUND ( 'NONE', #178, .T. ) ;
#148 = DIRECTION ( 'NONE',  ( -3.491481338843133355E-15, 1.224646799147353207E-16, -1.000000000000000000 ) ) ;
#149 = DATE_AND_TIME ( #18, #179 ) ;
#150 = EDGE_CURVE ( 'NONE', #127, #127, #169, .T. ) ;
#151 = DIRECTION ( 'NONE',  ( 3.491481338843133355E-15, -0.0000000000000000000, 1.000000000000000000 ) ) ;
#152 = AXIS2_PLACEMENT_3D ( 'NONE', #57, #125, #30 ) ;
#153 = CARTESIAN_POINT ( 'NONE',  ( 1.326762908760390423E-13, 1.199999999999995293, 38.00000000000000000 ) ) ;
#154 = PERSON_AND_ORGANIZATION ( #171, #116 ) ;
#155 = ADVANCED_FACE ( 'NONE', ( #147, #183 ), #210, .T. ) ;
#156 = PLANE ( 'NONE',  #219 ) ;
#157 = CC_DESIGN_APPROVAL ( #164, ( #72 ) ) ;
#158 = PLANE ( 'NONE',  #68 ) ;
#159 = APPROVAL ( #92, 'UNSPECIFIED' ) ;
#160 = APPROVAL_STATUS ( 'not_yet_approved' ) ;
#161 = APPLICATION_CONTEXT ( 'configuration controlled 3d designs of mechanical parts and assemblies' ) ;
#162 = DIRECTION ( 'NONE',  ( 3.491481338843133355E-15, -1.224646799147353207E-16, 1.000000000000000000 ) ) ;
#163 = PERSON_AND_ORGANIZATION ( #171, #116 ) ;
#164 = APPROVAL ( #160, 'UNSPECIFIED' ) ;
#165 = DIRECTION ( 'NONE',  ( 1.000000000000000000, 0.0000000000000000000, -3.469446951953611033E-15 ) ) ;
#166 = AXIS2_PLACEMENT_3D ( 'NONE', #145, #105, #101 ) ;
#167 = CARTESIAN_POINT ( 'NONE',  ( -1.282749433769087582E-30, 0.0000000000000000000, -3.673940397442059375E-16 ) ) ;
#168 = DIRECTION ( 'NONE',  ( -1.000000000000000000, 0.0000000000000000000, 3.469446951953614189E-15 ) ) ;
#169 = CIRCLE ( 'NONE', #119, 1.199999999999999956 ) ;
#170 = PERSON_AND_ORGANIZATION ( #171, #116 ) ;
#171 = PERSON ( 'UNSPECIFIED', 'UNSPECIFIED', 'UNSPECIFIED', ('UNSPECIFIED'), ('UNSPECIFIED'), ('UNSPECIFIED') ) ;
#172 = EDGE_CURVE ( 'NONE', #97, #97, #95, .T. ) ;
#173 = UNCERTAINTY_MEASURE_WITH_UNIT (LENGTH_MEASURE( 1.000000000000000082E-05 ), #130, 'distance_accuracy_value', 'NONE');
#174 = AXIS2_PLACEMENT_3D ( 'NONE', #73, #13, #165 ) ;
#175 = EDGE_LOOP ( 'NONE', ( #2 ) ) ;
#176 = CARTESIAN_POINT ( 'NONE',  ( -3.206873584422719393E-31, 1.124819836996393206E-32, -9.184850993605149670E-17 ) ) ;
#177 = PLANE ( 'NONE',  #53 ) ;
#178 = EDGE_LOOP ( 'NONE', ( #51 ) ) ;
#179 = LOCAL_TIME ( 9, 48, 56.00000000000000000, #144 ) ;
#180 = CC_DESIGN_PERSON_AND_ORGANIZATION_ASSIGNMENT ( #100, #11, ( #106 ) ) ;
#181 = ORIENTED_EDGE ( 'NONE', *, *, #104, .F. ) ;
#182 = SECURITY_CLASSIFICATION_LEVEL ( 'unclassified' ) ;
#183 = FACE_OUTER_BOUND ( 'NONE', #85, .T. ) ;
#184 = AXIS2_PLACEMENT_3D ( 'NONE', #189, #88, #35 ) ;
#185 = CARTESIAN_POINT ( 'NONE',  ( 0.0000000000000000000, 0.0000000000000000000, 0.0000000000000000000 ) ) ;
#186 = DIRECTION ( 'NONE',  ( 1.000000000000000000, 0.0000000000000000000, -3.469446951953611033E-15 ) ) ;
#187 = CARTESIAN_POINT ( 'NONE',  ( 1.704519303138779865E-14, 0.0000000000000000000, 4.881937314617167623 ) ) ;
#188 = COORDINATED_UNIVERSAL_TIME_OFFSET ( 1, 0, .AHEAD. ) ;
#189 = CARTESIAN_POINT ( 'NONE',  ( 1.316288464743861212E-13, -4.616918432785521081E-15, 37.69999999999999574 ) ) ;
#190 = AXIS2_PLACEMENT_3D ( 'NONE', #185, #196, #128 ) ;
#191 = EDGE_LOOP ( 'NONE', ( #110 ) ) ;
#192 = EDGE_LOOP ( 'NONE', ( #223 ) ) ;
#193 = CARTESIAN_POINT ( 'NONE',  ( 5.237222008264700033E-15, -2.168404344971008621E-16, 1.500000000000000000 ) ) ;
#194 = AXIS2_PLACEMENT_3D ( 'NONE', #42, #200, #186 ) ;
#195 = DIRECTION ( 'NONE',  ( -3.491481338843133355E-15, 1.224646799147353207E-16, -1.000000000000000000 ) ) ;
#196 = DIRECTION ( 'NONE',  ( -3.491481338843133355E-15, 1.224646799147353207E-16, -1.000000000000000000 ) ) ;
#197 = DIRECTION ( 'NONE',  ( 0.0000000000000000000, 1.000000000000000000, 0.0000000000000000000 ) ) ;
#198 = CC_DESIGN_PERSON_AND_ORGANIZATION_ASSIGNMENT ( #216, #138, ( #9 ) ) ;
#199 = PERSON_AND_ORGANIZATION ( #171, #116 ) ;
#200 = DIRECTION ( 'NONE',  ( 3.491481338843133355E-15, -0.0000000000000000000, 1.000000000000000000 ) ) ;
#201 = CIRCLE ( 'NONE', #143, 0.7500000000000002220 ) ;
#202 = LOCAL_TIME ( 9, 48, 56.00000000000000000, #56 ) ;
#203 = PLANE ( 'NONE',  #134 ) ;
#204 = EDGE_LOOP ( 'NONE', ( #222 ) ) ;
#205 = PERSON_AND_ORGANIZATION_ROLE ( 'classification_officer' ) ;
#206 = EDGE_LOOP ( 'NONE', ( #74 ) ) ;
#207 = ORIENTED_EDGE ( 'NONE', *, *, #172, .T. ) ;
#208 = DIRECTION ( 'NONE',  ( 4.275831445896958607E-31, 1.000000000000000000, 1.224646799147353207E-16 ) ) ;
#209 = VERTEX_POINT ( 'NONE', #211 ) ;
#210 = CYLINDRICAL_SURFACE ( 'NONE', #190, 1.500000000000000000 ) ;
#211 = CARTESIAN_POINT ( 'NONE',  ( 0.7500000000000002220, 0.0000000000000000000, -2.986005043876556644E-15 ) ) ;
#212 = APPLICATION_PROTOCOL_DEFINITION ( 'international standard', 'config_control_design', 1994, #36 ) ;
#213 = PERSON_AND_ORGANIZATION_ROLE ( 'creator' ) ;
#214 = AXIS2_PLACEMENT_3D ( 'NONE', #7, #8, #75 ) ;
#215 = ADVANCED_FACE ( 'NONE', ( #132, #111 ), #33, .F. ) ;
#216 = PERSON_AND_ORGANIZATION ( #171, #116 ) ;
#217 = APPROVAL ( #47, 'UNSPECIFIED' ) ;
#218 = APPROVAL_ROLE ( '' ) ;
#219 = AXIS2_PLACEMENT_3D ( 'NONE', #91, #162, #146 ) ;
#220 = CC_DESIGN_DATE_AND_TIME_ASSIGNMENT ( #135, #45, ( #31 ) ) ;
#221 = DIRECTION ( 'NONE',  ( 3.491481338843133355E-15, -1.224646799147353207E-16, 1.000000000000000000 ) ) ;
#222 = ORIENTED_EDGE ( 'NONE', *, *, #172, .F. ) ;
#223 = ORIENTED_EDGE ( 'NONE', *, *, #107, .F. ) ;
ENDSEC;
END-ISO-10303-21;
