ISO-10303-21;
HEADER;
FILE_DESCRIPTION (( 'STEP AP203' ),
    '1' );
FILE_NAME ('977790.step',
    '2021-11-15T08:48:56',
    ( '' ),
    ( '' ),
    'SwSTEP 2.0',
    'SolidWorks 2019',
    '' );
FILE_SCHEMA (( 'CONFIG_CONTROL_DESIGN' ));
ENDSEC;

DATA;
#1 = ADVANCED_FACE ( 'NONE', ( #96, #147 ), #29, .F. ) ;
#2 = CC_DESIGN_PERSON_AND_ORGANIZATION_ASSIGNMENT ( #81, #150, ( #142 ) ) ;
#3 = ADVANCED_FACE ( 'NONE', ( #164 ), #14, .F. ) ;
#4 = DIRECTION ( 'NONE',  ( 1.000000000000000000, 0.0000000000000000000, 0.0000000000000000000 ) ) ;
#5 = CARTESIAN_POINT ( 'NONE',  ( 0.0000000000000000000, 0.0000000000000000000, 0.0000000000000000000 ) ) ;
#6 = CC_DESIGN_APPROVAL ( #141, ( #142 ) ) ;
#7 = DATE_AND_TIME ( #97, #78 ) ;
#8 = CALENDAR_DATE ( 2021, 15, 11 ) ;
#9 = PRODUCT ( '977790', '977790', '', ( #87 ) ) ;
#10 = PLANE ( 'NONE',  #41 ) ;
#11 = PERSON_AND_ORGANIZATION_ROLE ( 'classification_officer' ) ;
#12 = LOCAL_TIME ( 9, 48, 56.00000000000000000, #146 ) ;
#13 = CARTESIAN_POINT ( 'NONE',  ( -1.282749433769087582E-30, 0.0000000000000000000, -3.673940397442059375E-16 ) ) ;
#14 = PLANE ( 'NONE',  #194 ) ;
#15 = CARTESIAN_POINT ( 'NONE',  ( 0.0000000000000000000, 0.0000000000000000000, 0.0000000000000000000 ) ) ;
#16 = AXIS2_PLACEMENT_3D ( 'NONE', #136, #100, #154 ) ;
#17 = ADVANCED_FACE ( 'NONE', ( #192 ), #85, .T. ) ;
#18 = EDGE_LOOP ( 'NONE', ( #39 ) ) ;
#19 = EDGE_LOOP ( 'NONE', ( #178 ) ) ;
#20 = CARTESIAN_POINT ( 'NONE',  ( 1.326762908760390423E-13, 1.199999999999995293, 38.00000000000000000 ) ) ;
#21 = ORIENTED_EDGE ( 'NONE', *, *, #86, .T. ) ;
#22 = LOCAL_TIME ( 9, 48, 56.00000000000000000, #72 ) ;
#23 =( GEOMETRIC_REPRESENTATION_CONTEXT ( 3 ) GLOBAL_UNCERTAINTY_ASSIGNED_CONTEXT ( ( #188 ) ) GLOBAL_UNIT_ASSIGNED_CONTEXT ( ( #202, #185, #169 ) ) REPRESENTATION_CONTEXT ( 'NONE', 'WORKASPACE' ) );
#24 = EDGE_LOOP ( 'NONE', ( #75 ) ) ;
#25 = DATE_TIME_ROLE ( 'classification_date' ) ;
#26 = CARTESIAN_POINT ( 'NONE',  ( 4.888073874380385909E-15, -2.023844055306274533E-16, 1.399999999999999689 ) ) ;
#27 = CARTESIAN_POINT ( 'NONE',  ( 1.316288464743861212E-13, -4.616918432785521081E-15, 37.69999999999999574 ) ) ;
#28 = PERSON_AND_ORGANIZATION_ROLE ( 'design_owner' ) ;
#29 = TOROIDAL_SURFACE ( 'NONE', #118, 8.699999999999999289, 8.000000000000000000 ) ;
#30 = AXIS2_PLACEMENT_3D ( 'NONE', #90, #187, #210 ) ;
#31 = VERTEX_POINT ( 'NONE', #103 ) ;
#32 = DATE_AND_TIME ( #36, #22 ) ;
#33 = CARTESIAN_POINT ( 'NONE',  ( 4.888073874380385909E-15, -2.023844055306274533E-16, 1.399999999999999689 ) ) ;
#34 = EDGE_CURVE ( 'NONE', #221, #221, #211, .T. ) ;
#35 = FACE_OUTER_BOUND ( 'NONE', #144, .T. ) ;
#36 = CALENDAR_DATE ( 2021, 15, 11 ) ;
#37 = VERTEX_POINT ( 'NONE', #162 ) ;
#38 = APPROVAL_PERSON_ORGANIZATION ( #62, #141, #111 ) ;
#39 = ORIENTED_EDGE ( 'NONE', *, *, #216, .T. ) ;
#40 = PERSON_AND_ORGANIZATION ( #79, #50 ) ;
#41 = AXIS2_PLACEMENT_3D ( 'NONE', #43, #71, #173 ) ;
#42 = DATE_AND_TIME ( #114, #54 ) ;
#43 = CARTESIAN_POINT ( 'NONE',  ( -3.206873584422719393E-31, 1.124819836996393206E-32, -9.184850993605149670E-17 ) ) ;
#44 = APPROVAL_DATE_TIME ( #7, #141 ) ;
#45 = CARTESIAN_POINT ( 'NONE',  ( 4.888073874380382753E-15, 0.0000000000000000000, 1.399999999999998801 ) ) ;
#46 = DESIGN_CONTEXT ( 'detailed design', #101, 'design' ) ;
#47 = PERSON_AND_ORGANIZATION ( #79, #50 ) ;
#48 = DIRECTION ( 'NONE',  ( 4.275831445896959482E-31, 1.000000000000000000, 1.224646799147353207E-16 ) ) ;
#49 = AXIS2_PLACEMENT_3D ( 'NONE', #33, #104, #171 ) ;
#50 = ORGANIZATION ( 'UNSPECIFIED', 'UNSPECIFIED', '' ) ;
#51 = DIRECTION ( 'NONE',  ( -1.000000000000000000, 0.0000000000000000000, 3.469446951953614189E-15 ) ) ;
#52 = DIRECTION ( 'NONE',  ( 3.491481338843133355E-15, -0.0000000000000000000, 1.000000000000000000 ) ) ;
#53 = ADVANCED_FACE ( 'NONE', ( #137 ), #10, .T. ) ;
#54 = LOCAL_TIME ( 9, 48, 56.00000000000000000, #132 ) ;
#55 = CC_DESIGN_SECURITY_CLASSIFICATION ( #138, ( #142 ) ) ;
#56 = EDGE_LOOP ( 'NONE', ( #198 ) ) ;
#57 = EDGE_CURVE ( 'NONE', #209, #209, #175, .T. ) ;
#58 = EDGE_LOOP ( 'NONE', ( #77 ) ) ;
#59 = AXIS2_PLACEMENT_3D ( 'NONE', #88, #174, #160 ) ;
#60 = DATE_AND_TIME ( #8, #155 ) ;
#61 = EDGE_LOOP ( 'NONE', ( #99 ) ) ;
#62 = PERSON_AND_ORGANIZATION ( #79, #50 ) ;
#63 = PERSON_AND_ORGANIZATION ( #79, #50 ) ;
#64 = FACE_BOUND ( 'NONE', #18, .T. ) ;
#65 = PRODUCT_DEFINITION ( 'UNKNOWN', '', #142, #46 ) ;
#66 = AXIS2_PLACEMENT_3D ( 'NONE', #133, #219, #68 ) ;
#67 = DIRECTION ( 'NONE',  ( 0.0000000000000000000, 0.0000000000000000000, 1.000000000000000000 ) ) ;
#68 = DIRECTION ( 'NONE',  ( 1.000000000000000000, 0.0000000000000000000, -3.407492542097303087E-15 ) ) ;
#69 = VERTEX_POINT ( 'NONE', #20 ) ;
#70 = CARTESIAN_POINT ( 'NONE',  ( 0.7000000000000040634, 0.0000000000000000000, 1.399999999999996581 ) ) ;
#71 = DIRECTION ( 'NONE',  ( -3.491481338843133355E-15, 1.224646799147353207E-16, -1.000000000000000000 ) ) ;
#72 = COORDINATED_UNIVERSAL_TIME_OFFSET ( 1, 0, .AHEAD. ) ;
#73 = APPROVAL_DATE_TIME ( #32, #89 ) ;
#74 = AXIS2_PLACEMENT_3D ( 'NONE', #45, #52, #168 ) ;
#75 = ORIENTED_EDGE ( 'NONE', *, *, #166, .T. ) ;
#76 = APPLICATION_PROTOCOL_DEFINITION ( 'international standard', 'config_control_design', 1994, #93 ) ;
#77 = ORIENTED_EDGE ( 'NONE', *, *, #57, .F. ) ;
#78 = LOCAL_TIME ( 9, 48, 56.00000000000000000, #153 ) ;
#79 = PERSON ( 'UNSPECIFIED', 'UNSPECIFIED', 'UNSPECIFIED', ('UNSPECIFIED'), ('UNSPECIFIED'), ('UNSPECIFIED') ) ;
#80 = DIRECTION ( 'NONE',  ( 3.491481338843133355E-15, -0.0000000000000000000, 1.000000000000000000 ) ) ;
#81 = PERSON_AND_ORGANIZATION ( #79, #50 ) ;
#82 = CC_DESIGN_PERSON_AND_ORGANIZATION_ASSIGNMENT ( #63, #11, ( #138 ) ) ;
#83 = EDGE_LOOP ( 'NONE', ( #21 ) ) ;
#84 = APPLICATION_PROTOCOL_DEFINITION ( 'international standard', 'config_control_design', 1994, #101 ) ;
#85 = PLANE ( 'NONE',  #49 ) ;
#86 = EDGE_CURVE ( 'NONE', #31, #31, #184, .T. ) ;
#87 = MECHANICAL_CONTEXT ( 'NONE', #93, 'mechanical' ) ;
#88 = CARTESIAN_POINT ( 'NONE',  ( 1.316288464743861212E-13, -4.616918432785521081E-15, 37.69999999999999574 ) ) ;
#89 = APPROVAL ( #116, 'UNSPECIFIED' ) ;
#90 = CARTESIAN_POINT ( 'NONE',  ( 1.326762908760390423E-13, 8.998558695971077224E-33, 38.00000000000000000 ) ) ;
#91 = DIRECTION ( 'NONE',  ( -3.491481338843133355E-15, 1.224646799147353207E-16, -1.000000000000000000 ) ) ;
#92 = SHAPE_DEFINITION_REPRESENTATION ( #98, #172 ) ;
#93 = APPLICATION_CONTEXT ( 'configuration controlled 3d designs of mechanical parts and assemblies' ) ;
#94 = CIRCLE ( 'NONE', #125, 1.199999999999999956 ) ;
#95 = CC_DESIGN_PERSON_AND_ORGANIZATION_ASSIGNMENT ( #40, #189, ( #65 ) ) ;
#96 = FACE_OUTER_BOUND ( 'NONE', #19, .T. ) ;
#97 = CALENDAR_DATE ( 2021, 15, 11 ) ;
#98 = PRODUCT_DEFINITION_SHAPE ( 'NONE', 'NONE',  #65 ) ;
#99 = ORIENTED_EDGE ( 'NONE', *, *, #86, .F. ) ;
#100 = DIRECTION ( 'NONE',  ( 3.491481338843133355E-15, -0.0000000000000000000, 1.000000000000000000 ) ) ;
#101 = APPLICATION_CONTEXT ( 'configuration controlled 3d designs of mechanical parts and assemblies' ) ;
#102 = CLOSED_SHELL ( 'NONE', ( #105, #152, #131, #1, #3 ) ) ;
#103 = CARTESIAN_POINT ( 'NONE',  ( 0.7000000000000000666, 0.0000000000000000000, -2.811430976934399582E-15 ) ) ;
#104 = DIRECTION ( 'NONE',  ( 3.491481338843133355E-15, -1.224646799147353207E-16, 1.000000000000000000 ) ) ;
#105 = ADVANCED_FACE ( 'NONE', ( #119, #113 ), #157, .T. ) ;
#106 = FACE_OUTER_BOUND ( 'NONE', #58, .T. ) ;
#107 = CONICAL_SURFACE ( 'NONE', #59, 1.499999999999999778, 0.7853981633974453924 ) ;
#108 = AXIS2_PLACEMENT_3D ( 'NONE', #13, #115, #212 ) ;
#109 = APPROVAL_PERSON_ORGANIZATION ( #183, #121, #181 ) ;
#110 = ORIENTED_EDGE ( 'NONE', *, *, #216, .F. ) ;
#111 = APPROVAL_ROLE ( '' ) ;
#112 = AXIS2_PLACEMENT_3D ( 'NONE', #15, #91, #48 ) ;
#113 = FACE_OUTER_BOUND ( 'NONE', #182, .T. ) ;
#114 = CALENDAR_DATE ( 2021, 15, 11 ) ;
#115 = DIRECTION ( 'NONE',  ( 3.491481338843133355E-15, -0.0000000000000000000, 1.000000000000000000 ) ) ;
#116 = APPROVAL_STATUS ( 'not_yet_approved' ) ;
#117 = FACE_OUTER_BOUND ( 'NONE', #145, .T. ) ;
#118 = AXIS2_PLACEMENT_3D ( 'NONE', #126, #80, #149 ) ;
#119 = FACE_OUTER_BOUND ( 'NONE', #180, .T. ) ;
#120 = CYLINDRICAL_SURFACE ( 'NONE', #16, 0.6999999999999996225 ) ;
#121 = APPROVAL ( #167, 'UNSPECIFIED' ) ;
#122 = CC_DESIGN_APPROVAL ( #89, ( #138 ) ) ;
#123 = CC_DESIGN_PERSON_AND_ORGANIZATION_ASSIGNMENT ( #134, #165, ( #142 ) ) ;
#124 = CC_DESIGN_APPROVAL ( #121, ( #65 ) ) ;
#125 = AXIS2_PLACEMENT_3D ( 'NONE', #135, #207, #170 ) ;
#126 = CARTESIAN_POINT ( 'NONE',  ( 4.888073874380386697E-15, 0.0000000000000000000, 1.399999999999999911 ) ) ;
#127 = ORIENTED_EDGE ( 'NONE', *, *, #166, .F. ) ;
#128 = APPROVAL_DATE_TIME ( #60, #121 ) ;
#129 = MANIFOLD_SOLID_BREP ( 'Corps-Déplacer/Copier1[1]', #102 ) ;
#130 = CARTESIAN_POINT ( 'NONE',  ( 0.7000000000000040634, 0.0000000000000000000, 1.399999999999996581 ) ) ;
#131 = ADVANCED_FACE ( 'NONE', ( #35 ), #222, .F. ) ;
#132 = COORDINATED_UNIVERSAL_TIME_OFFSET ( 1, 0, .AHEAD. ) ;
#133 = CARTESIAN_POINT ( 'NONE',  ( 4.888073874380382753E-15, 0.0000000000000000000, 1.399999999999998801 ) ) ;
#134 = PERSON_AND_ORGANIZATION ( #79, #50 ) ;
#135 = CARTESIAN_POINT ( 'NONE',  ( 1.326762908760390423E-13, -4.653657836759941941E-15, 38.00000000000000000 ) ) ;
#136 = CARTESIAN_POINT ( 'NONE',  ( 0.0000000000000000000, 0.0000000000000000000, 0.0000000000000000000 ) ) ;
#137 = FACE_OUTER_BOUND ( 'NONE', #61, .T. ) ;
#138 = SECURITY_CLASSIFICATION ( '', '', #156 ) ;
#139 = DIRECTION ( 'NONE',  ( 3.491481338843133355E-15, -1.224646799147353207E-16, 1.000000000000000000 ) ) ;
#140 = ADVANCED_FACE ( 'NONE', ( #186, #117 ), #120, .T. ) ;
#141 = APPROVAL ( #201, 'UNSPECIFIED' ) ;
#142 = PRODUCT_DEFINITION_FORMATION_WITH_SPECIFIED_SOURCE ( 'ANY', '', #9, .NOT_KNOWN. ) ;
#143 = EDGE_CURVE ( 'NONE', #37, #37, #204, .T. ) ;
#144 = EDGE_LOOP ( 'NONE', ( #110 ) ) ;
#145 = EDGE_LOOP ( 'NONE', ( #127 ) ) ;
#146 = COORDINATED_UNIVERSAL_TIME_OFFSET ( 1, 0, .AHEAD. ) ;
#147 = FACE_OUTER_BOUND ( 'NONE', #214, .T. ) ;
#148 = CALENDAR_DATE ( 2021, 15, 11 ) ;
#149 = DIRECTION ( 'NONE',  ( 1.000000000000000000, 0.0000000000000000000, -3.491481338843133355E-15 ) ) ;
#150 = PERSON_AND_ORGANIZATION_ROLE ( 'design_supplier' ) ;
#151 = DIRECTION ( 'NONE',  ( 0.0000000000000000000, 1.000000000000000000, 0.0000000000000000000 ) ) ;
#152 = ADVANCED_FACE ( 'NONE', ( #64, #106 ), #107, .T. ) ;
#153 = COORDINATED_UNIVERSAL_TIME_OFFSET ( 1, 0, .AHEAD. ) ;
#154 = DIRECTION ( 'NONE',  ( 1.000000000000000000, 0.0000000000000000000, -3.491481338843133355E-15 ) ) ;
#155 = LOCAL_TIME ( 9, 48, 56.00000000000000000, #220 ) ;
#156 = SECURITY_CLASSIFICATION_LEVEL ( 'unclassified' ) ;
#157 = CYLINDRICAL_SURFACE ( 'NONE', #112, 1.500000000000000000 ) ;
#158 = DIRECTION ( 'NONE',  ( -4.275831445896958607E-31, -1.000000000000000000, -1.224646799147353207E-16 ) ) ;
#159 = CC_DESIGN_DATE_AND_TIME_ASSIGNMENT ( #42, #25, ( #138 ) ) ;
#160 = DIRECTION ( 'NONE',  ( 0.0000000000000000000, 1.000000000000000000, 0.0000000000000000000 ) ) ;
#161 = AXIS2_PLACEMENT_3D ( 'NONE', #193, #218, #51 ) ;
#162 = CARTESIAN_POINT ( 'NONE',  ( -1.499999999999982903, 0.0000000000000000000, 4.887119154832544332 ) ) ;
#163 = ORIENTED_EDGE ( 'NONE', *, *, #34, .T. ) ;
#164 = FACE_OUTER_BOUND ( 'NONE', #56, .T. ) ;
#165 = PERSON_AND_ORGANIZATION_ROLE ( 'creator' ) ;
#166 = EDGE_CURVE ( 'NONE', #206, #206, #213, .T. ) ;
#167 = APPROVAL_STATUS ( 'not_yet_approved' ) ;
#168 = DIRECTION ( 'NONE',  ( 1.000000000000000000, 0.0000000000000000000, -3.407492542097303087E-15 ) ) ;
#169 =( NAMED_UNIT ( * ) SI_UNIT ( $, .STERADIAN. ) SOLID_ANGLE_UNIT ( ) );
#170 = DIRECTION ( 'NONE',  ( 0.0000000000000000000, 1.000000000000000000, 0.0000000000000000000 ) ) ;
#171 = DIRECTION ( 'NONE',  ( -4.275831445896958607E-31, -1.000000000000000000, -1.224646799147353207E-16 ) ) ;
#172 = ADVANCED_BREP_SHAPE_REPRESENTATION ( '977790', ( #129, #203, #195 ), #23 ) ;
#173 = DIRECTION ( 'NONE',  ( 4.275831445896958607E-31, 1.000000000000000000, 1.224646799147353207E-16 ) ) ;
#174 = DIRECTION ( 'NONE',  ( -3.491481338843133355E-15, 1.224646799147353207E-16, -1.000000000000000000 ) ) ;
#175 = CIRCLE ( 'NONE', #196, 1.499999999999999778 ) ;
#176 = CC_DESIGN_PERSON_AND_ORGANIZATION_ASSIGNMENT ( #200, #28, ( #9 ) ) ;
#177 = APPROVAL_ROLE ( '' ) ;
#178 = ORIENTED_EDGE ( 'NONE', *, *, #143, .F. ) ;
#179 = ORIENTED_EDGE ( 'NONE', *, *, #143, .T. ) ;
#180 = EDGE_LOOP ( 'NONE', ( #215 ) ) ;
#181 = APPROVAL_ROLE ( '' ) ;
#182 = EDGE_LOOP ( 'NONE', ( #179 ) ) ;
#183 = PERSON_AND_ORGANIZATION ( #79, #50 ) ;
#184 = CIRCLE ( 'NONE', #108, 0.7000000000000000666 ) ;
#185 =( NAMED_UNIT ( * ) PLANE_ANGLE_UNIT ( ) SI_UNIT ( $, .RADIAN. ) );
#186 = FACE_OUTER_BOUND ( 'NONE', #83, .T. ) ;
#187 = DIRECTION ( 'NONE',  ( -3.491481338843133355E-15, 1.224646799147353207E-16, -1.000000000000000000 ) ) ;
#188 = UNCERTAINTY_MEASURE_WITH_UNIT (LENGTH_MEASURE( 1.000000000000000082E-05 ), #202, 'distance_accuracy_value', 'NONE');
#189 = PERSON_AND_ORGANIZATION_ROLE ( 'creator' ) ;
#190 = CARTESIAN_POINT ( 'NONE',  ( 1.316288464743861212E-13, 1.499999999999995337, 37.69999999999999574 ) ) ;
#191 = CC_DESIGN_DATE_AND_TIME_ASSIGNMENT ( #208, #217, ( #65 ) ) ;
#192 = FACE_OUTER_BOUND ( 'NONE', #24, .T. ) ;
#193 = CARTESIAN_POINT ( 'NONE',  ( 1.706328532980063481E-14, 0.0000000000000000000, 4.887119154832539003 ) ) ;
#194 = AXIS2_PLACEMENT_3D ( 'NONE', #26, #139, #158 ) ;
#195 = AXIS2_PLACEMENT_3D ( 'NONE', #5, #67, #4 ) ;
#196 = AXIS2_PLACEMENT_3D ( 'NONE', #27, #205, #151 ) ;
#197 = PRODUCT_RELATED_PRODUCT_CATEGORY ( 'detail', '', ( #9 ) ) ;
#198 = ORIENTED_EDGE ( 'NONE', *, *, #34, .F. ) ;
#199 = CLOSED_SHELL ( 'NONE', ( #17, #140, #53 ) ) ;
#200 = PERSON_AND_ORGANIZATION ( #79, #50 ) ;
#201 = APPROVAL_STATUS ( 'not_yet_approved' ) ;
#202 =( LENGTH_UNIT ( ) NAMED_UNIT ( * ) SI_UNIT ( .MILLI., .METRE. ) );
#203 = MANIFOLD_SOLID_BREP ( 'Corps-Déplacer/Copier1[2]', #199 ) ;
#204 = CIRCLE ( 'NONE', #161, 1.500000000000000000 ) ;
#205 = DIRECTION ( 'NONE',  ( -3.491481338843133355E-15, 1.224646799147353207E-16, -1.000000000000000000 ) ) ;
#206 = VERTEX_POINT ( 'NONE', #130 ) ;
#207 = DIRECTION ( 'NONE',  ( -3.491481338843133355E-15, 1.224646799147353207E-16, -1.000000000000000000 ) ) ;
#208 = DATE_AND_TIME ( #148, #12 ) ;
#209 = VERTEX_POINT ( 'NONE', #190 ) ;
#210 = DIRECTION ( 'NONE',  ( 4.275831445896958607E-31, 1.000000000000000000, 1.224646799147353207E-16 ) ) ;
#211 = CIRCLE ( 'NONE', #74, 0.6999999999999992895 ) ;
#212 = DIRECTION ( 'NONE',  ( 1.000000000000000000, 0.0000000000000000000, -3.491481338843133750E-15 ) ) ;
#213 = CIRCLE ( 'NONE', #66, 0.6999999999999992895 ) ;
#214 = EDGE_LOOP ( 'NONE', ( #163 ) ) ;
#215 = ORIENTED_EDGE ( 'NONE', *, *, #57, .T. ) ;
#216 = EDGE_CURVE ( 'NONE', #69, #69, #94, .T. ) ;
#217 = DATE_TIME_ROLE ( 'creation_date' ) ;
#218 = DIRECTION ( 'NONE',  ( 3.491481338843133355E-15, -0.0000000000000000000, 1.000000000000000000 ) ) ;
#219 = DIRECTION ( 'NONE',  ( 3.491481338843133355E-15, -0.0000000000000000000, 1.000000000000000000 ) ) ;
#220 = COORDINATED_UNIVERSAL_TIME_OFFSET ( 1, 0, .AHEAD. ) ;
#221 = VERTEX_POINT ( 'NONE', #70 ) ;
#222 = PLANE ( 'NONE',  #30 ) ;
#223 = APPROVAL_PERSON_ORGANIZATION ( #47, #89, #177 ) ;
ENDSEC;
END-ISO-10303-21;
