ISO-10303-21;
HEADER;
FILE_DESCRIPTION (( 'STEP AP203' ),
    '1' );
FILE_NAME ('977789.step',
    '2021-11-15T08:48:55',
    ( '' ),
    ( '' ),
    'SwSTEP 2.0',
    'SolidWorks 2019',
    '' );
FILE_SCHEMA (( 'CONFIG_CONTROL_DESIGN' ));
ENDSEC;

DATA;
#1 = CC_DESIGN_DATE_AND_TIME_ASSIGNMENT ( #184, #204, ( #82 ) ) ;
#2 = DIRECTION ( 'NONE',  ( 3.491481338843133355E-15, -0.0000000000000000000, 1.000000000000000000 ) ) ;
#3 = ADVANCED_FACE ( 'NONE', ( #157 ), #43, .T. ) ;
#4 = AXIS2_PLACEMENT_3D ( 'NONE', #177, #2, #89 ) ;
#5 = EDGE_LOOP ( 'NONE', ( #208 ) ) ;
#6 = PRODUCT_RELATED_PRODUCT_CATEGORY ( 'detail', '', ( #35 ) ) ;
#7 = CARTESIAN_POINT ( 'NONE',  ( 4.538925740496069418E-15, 0.0000000000000000000, 1.299999999999998934 ) ) ;
#8 = DIRECTION ( 'NONE',  ( 1.000000000000000000, 0.0000000000000000000, -3.491481338843133355E-15 ) ) ;
#9 = DIRECTION ( 'NONE',  ( -4.275831445896958607E-31, -1.000000000000000000, -1.224646799147353207E-16 ) ) ;
#10 = CARTESIAN_POINT ( 'NONE',  ( 1.326762908760390423E-13, 1.199999999999995293, 38.00000000000000000 ) ) ;
#11 =( NAMED_UNIT ( * ) SI_UNIT ( $, .STERADIAN. ) SOLID_ANGLE_UNIT ( ) );
#12 = EDGE_CURVE ( 'NONE', #220, #220, #175, .T. ) ;
#13 = TOROIDAL_SURFACE ( 'NONE', #113, 8.650000000000000355, 8.000000000000000000 ) ;
#14 = CIRCLE ( 'NONE', #73, 1.499999999999999778 ) ;
#15 = CC_DESIGN_PERSON_AND_ORGANIZATION_ASSIGNMENT ( #164, #134, ( #32 ) ) ;
#16 = AXIS2_PLACEMENT_3D ( 'NONE', #209, #79, #64 ) ;
#17 = ORIENTED_EDGE ( 'NONE', *, *, #98, .T. ) ;
#18 = AXIS2_PLACEMENT_3D ( 'NONE', #154, #174, #137 ) ;
#19 = CC_DESIGN_APPROVAL ( #65, ( #32 ) ) ;
#20 = AXIS2_PLACEMENT_3D ( 'NONE', #101, #76, #144 ) ;
#21 = APPROVAL_DATE_TIME ( #221, #65 ) ;
#22 = CALENDAR_DATE ( 2021, 15, 11 ) ;
#23 = ORIENTED_EDGE ( 'NONE', *, *, #98, .F. ) ;
#24 = CC_DESIGN_PERSON_AND_ORGANIZATION_ASSIGNMENT ( #97, #55, ( #82 ) ) ;
#25 = EDGE_LOOP ( 'NONE', ( #191 ) ) ;
#26 = CARTESIAN_POINT ( 'NONE',  ( -3.206873584422719393E-31, 1.124819836996393206E-32, -9.184850993605149670E-17 ) ) ;
#27 = DIRECTION ( 'NONE',  ( 4.275831445896959482E-31, 1.000000000000000000, 1.224646799147353207E-16 ) ) ;
#28 = LOCAL_TIME ( 9, 48, 55.00000000000000000, #66 ) ;
#29 = FACE_OUTER_BOUND ( 'NONE', #46, .T. ) ;
#30 = CARTESIAN_POINT ( 'NONE',  ( 4.538925740496073362E-15, -1.879283765641540937E-16, 1.300000000000000044 ) ) ;
#31 = DATE_AND_TIME ( #94, #200 ) ;
#32 = PRODUCT_DEFINITION_FORMATION_WITH_SPECIFIED_SOURCE ( 'ANY', '', #35, .NOT_KNOWN. ) ;
#33 = DIRECTION ( 'NONE',  ( 0.0000000000000000000, 0.0000000000000000000, 1.000000000000000000 ) ) ;
#34 = PERSON_AND_ORGANIZATION_ROLE ( 'creator' ) ;
#35 = PRODUCT ( '977789', '977789', '', ( #125 ) ) ;
#36 = DATE_AND_TIME ( #179, #28 ) ;
#37 = CARTESIAN_POINT ( 'NONE',  ( -1.499999999999982903, 0.0000000000000000000, 4.888523373199626931 ) ) ;
#38 = ORIENTED_EDGE ( 'NONE', *, *, #84, .F. ) ;
#39 = CIRCLE ( 'NONE', #216, 0.6499999999999995781 ) ;
#40 = CIRCLE ( 'NONE', #185, 1.199999999999999956 ) ;
#41 = PERSON_AND_ORGANIZATION_ROLE ( 'creator' ) ;
#42 = DIRECTION ( 'NONE',  ( -3.491481338843133355E-15, 1.224646799147353207E-16, -1.000000000000000000 ) ) ;
#43 = PLANE ( 'NONE',  #95 ) ;
#44 = PLANE ( 'NONE',  #165 ) ;
#45 = CC_DESIGN_APPROVAL ( #219, ( #82 ) ) ;
#46 = EDGE_LOOP ( 'NONE', ( #38 ) ) ;
#47 = FACE_OUTER_BOUND ( 'NONE', #176, .T. ) ;
#48 = APPROVAL_PERSON_ORGANIZATION ( #145, #58, #108 ) ;
#49 = VERTEX_POINT ( 'NONE', #183 ) ;
#50 =( LENGTH_UNIT ( ) NAMED_UNIT ( * ) SI_UNIT ( .MILLI., .METRE. ) );
#51 = CLOSED_SHELL ( 'NONE', ( #129, #148, #162, #218, #62 ) ) ;
#52 = CALENDAR_DATE ( 2021, 15, 11 ) ;
#53 = APPROVAL_PERSON_ORGANIZATION ( #93, #65, #81 ) ;
#54 = CLOSED_SHELL ( 'NONE', ( #3, #141, #110 ) ) ;
#55 = PERSON_AND_ORGANIZATION_ROLE ( 'classification_officer' ) ;
#56 = EDGE_LOOP ( 'NONE', ( #85 ) ) ;
#57 = DIRECTION ( 'NONE',  ( 3.491481338843133355E-15, -0.0000000000000000000, 1.000000000000000000 ) ) ;
#58 = APPROVAL ( #111, 'UNSPECIFIED' ) ;
#59 = DIRECTION ( 'NONE',  ( -4.275831445896958607E-31, -1.000000000000000000, -1.224646799147353207E-16 ) ) ;
#60 = MANIFOLD_SOLID_BREP ( 'Corps-Déplacer/Copier1[1]', #51 ) ;
#61 = PLANE ( 'NONE',  #103 ) ;
#62 = ADVANCED_FACE ( 'NONE', ( #78 ), #61, .F. ) ;
#63 = EDGE_LOOP ( 'NONE', ( #206 ) ) ;
#64 = DIRECTION ( 'NONE',  ( -1.000000000000000000, 0.0000000000000000000, 3.469446951953614189E-15 ) ) ;
#65 = APPROVAL ( #160, 'UNSPECIFIED' ) ;
#66 = COORDINATED_UNIVERSAL_TIME_OFFSET ( 1, 0, .AHEAD. ) ;
#67 = EDGE_CURVE ( 'NONE', #158, #158, #14, .T. ) ;
#68 = APPLICATION_PROTOCOL_DEFINITION ( 'international standard', 'config_control_design', 1994, #181 ) ;
#69 = FACE_OUTER_BOUND ( 'NONE', #223, .T. ) ;
#70 = DATE_TIME_ROLE ( 'creation_date' ) ;
#71 =( NAMED_UNIT ( * ) PLANE_ANGLE_UNIT ( ) SI_UNIT ( $, .RADIAN. ) );
#72 = PERSON_AND_ORGANIZATION ( #195, #117 ) ;
#73 = AXIS2_PLACEMENT_3D ( 'NONE', #211, #92, #212 ) ;
#74 = SHAPE_DEFINITION_REPRESENTATION ( #197, #130 ) ;
#75 = FACE_OUTER_BOUND ( 'NONE', #5, .T. ) ;
#76 = DIRECTION ( 'NONE',  ( 3.491481338843133355E-15, -0.0000000000000000000, 1.000000000000000000 ) ) ;
#77 = DIRECTION ( 'NONE',  ( 3.491481338843133355E-15, -0.0000000000000000000, 1.000000000000000000 ) ) ;
#78 = FACE_OUTER_BOUND ( 'NONE', #56, .T. ) ;
#79 = DIRECTION ( 'NONE',  ( 3.491481338843133355E-15, -0.0000000000000000000, 1.000000000000000000 ) ) ;
#80 = PERSON_AND_ORGANIZATION ( #195, #117 ) ;
#81 = APPROVAL_ROLE ( '' ) ;
#82 = SECURITY_CLASSIFICATION ( '', '', #114 ) ;
#83 = CARTESIAN_POINT ( 'NONE',  ( 4.538925740496073362E-15, 0.0000000000000000000, 1.300000000000000044 ) ) ;
#84 = EDGE_CURVE ( 'NONE', #49, #49, #132, .T. ) ;
#85 = ORIENTED_EDGE ( 'NONE', *, *, #192, .F. ) ;
#86 = EDGE_CURVE ( 'NONE', #159, #159, #40, .T. ) ;
#87 = EDGE_LOOP ( 'NONE', ( #168 ) ) ;
#88 = FACE_BOUND ( 'NONE', #87, .T. ) ;
#89 = DIRECTION ( 'NONE',  ( 1.000000000000000000, 0.0000000000000000000, -3.491481338843133355E-15 ) ) ;
#90 = DIRECTION ( 'NONE',  ( -3.491481338843133355E-15, 1.224646799147353207E-16, -1.000000000000000000 ) ) ;
#91 = DIRECTION ( 'NONE',  ( 0.0000000000000000000, 1.000000000000000000, 0.0000000000000000000 ) ) ;
#92 = DIRECTION ( 'NONE',  ( -3.491481338843133355E-15, 1.224646799147353207E-16, -1.000000000000000000 ) ) ;
#93 = PERSON_AND_ORGANIZATION ( #195, #117 ) ;
#94 = CALENDAR_DATE ( 2021, 15, 11 ) ;
#95 = AXIS2_PLACEMENT_3D ( 'NONE', #189, #104, #9 ) ;
#96 = CARTESIAN_POINT ( 'NONE',  ( 0.0000000000000000000, 0.0000000000000000000, 0.0000000000000000000 ) ) ;
#97 = PERSON_AND_ORGANIZATION ( #195, #117 ) ;
#98 = EDGE_CURVE ( 'NONE', #161, #161, #118, .T. ) ;
#99 = CALENDAR_DATE ( 2021, 15, 11 ) ;
#100 = DIRECTION ( 'NONE',  ( 4.275831445896958607E-31, 1.000000000000000000, 1.224646799147353207E-16 ) ) ;
#101 = CARTESIAN_POINT ( 'NONE',  ( 4.538925740496069418E-15, 0.0000000000000000000, 1.299999999999998934 ) ) ;
#102 = CARTESIAN_POINT ( 'NONE',  ( 1.326762908760390423E-13, 8.998558695971077224E-33, 38.00000000000000000 ) ) ;
#103 = AXIS2_PLACEMENT_3D ( 'NONE', #30, #116, #59 ) ;
#104 = DIRECTION ( 'NONE',  ( 3.491481338843133355E-15, -1.224646799147353207E-16, 1.000000000000000000 ) ) ;
#105 = DIRECTION ( 'NONE',  ( -3.491481338843133355E-15, 1.224646799147353207E-16, -1.000000000000000000 ) ) ;
#106 = COORDINATED_UNIVERSAL_TIME_OFFSET ( 1, 0, .AHEAD. ) ;
#107 = CARTESIAN_POINT ( 'NONE',  ( 0.6500000000000000222, 0.0000000000000000000, -2.636856909992242520E-15 ) ) ;
#108 = APPROVAL_ROLE ( '' ) ;
#109 = DIRECTION ( 'NONE',  ( 1.000000000000000000, 0.0000000000000000000, -3.491481338843133355E-15 ) ) ;
#110 = ADVANCED_FACE ( 'NONE', ( #188 ), #196, .T. ) ;
#111 = APPROVAL_STATUS ( 'not_yet_approved' ) ;
#112 = UNCERTAINTY_MEASURE_WITH_UNIT (LENGTH_MEASURE( 1.000000000000000082E-05 ), #50, 'distance_accuracy_value', 'NONE');
#113 = AXIS2_PLACEMENT_3D ( 'NONE', #83, #198, #109 ) ;
#114 = SECURITY_CLASSIFICATION_LEVEL ( 'unclassified' ) ;
#115 = APPROVAL_ROLE ( '' ) ;
#116 = DIRECTION ( 'NONE',  ( 3.491481338843133355E-15, -1.224646799147353207E-16, 1.000000000000000000 ) ) ;
#117 = ORGANIZATION ( 'UNSPECIFIED', 'UNSPECIFIED', '' ) ;
#118 = CIRCLE ( 'NONE', #16, 1.500000000000000000 ) ;
#119 = CYLINDRICAL_SURFACE ( 'NONE', #217, 1.500000000000000000 ) ;
#120 = CC_DESIGN_DATE_AND_TIME_ASSIGNMENT ( #31, #70, ( #171 ) ) ;
#121 = CYLINDRICAL_SURFACE ( 'NONE', #4, 0.6499999999999998002 ) ;
#122 = CARTESIAN_POINT ( 'NONE',  ( 1.326762908760390423E-13, -4.653657836759941941E-15, 38.00000000000000000 ) ) ;
#123 = FACE_OUTER_BOUND ( 'NONE', #210, .T. ) ;
#124 = PERSON_AND_ORGANIZATION ( #195, #117 ) ;
#125 = MECHANICAL_CONTEXT ( 'NONE', #181, 'mechanical' ) ;
#126 = CONICAL_SURFACE ( 'NONE', #18, 1.499999999999999778, 0.7853981633974453924 ) ;
#127 = VERTEX_POINT ( 'NONE', #178 ) ;
#128 = PERSON_AND_ORGANIZATION_ROLE ( 'design_owner' ) ;
#129 = ADVANCED_FACE ( 'NONE', ( #123, #47 ), #119, .T. ) ;
#130 = ADVANCED_BREP_SHAPE_REPRESENTATION ( '977789', ( #60, #207, #133 ), #138 ) ;
#131 = APPROVAL_STATUS ( 'not_yet_approved' ) ;
#132 = CIRCLE ( 'NONE', #20, 0.6499999999999995781 ) ;
#133 = AXIS2_PLACEMENT_3D ( 'NONE', #96, #33, #201 ) ;
#134 = PERSON_AND_ORGANIZATION_ROLE ( 'design_supplier' ) ;
#135 = CC_DESIGN_PERSON_AND_ORGANIZATION_ASSIGNMENT ( #124, #34, ( #171 ) ) ;
#136 = ORIENTED_EDGE ( 'NONE', *, *, #86, .F. ) ;
#137 = DIRECTION ( 'NONE',  ( 0.0000000000000000000, 1.000000000000000000, 0.0000000000000000000 ) ) ;
#138 =( GEOMETRIC_REPRESENTATION_CONTEXT ( 3 ) GLOBAL_UNCERTAINTY_ASSIGNED_CONTEXT ( ( #112 ) ) GLOBAL_UNIT_ASSIGNED_CONTEXT ( ( #50, #71, #11 ) ) REPRESENTATION_CONTEXT ( 'NONE', 'WORKASPACE' ) );
#139 = CARTESIAN_POINT ( 'NONE',  ( 0.0000000000000000000, 0.0000000000000000000, 0.0000000000000000000 ) ) ;
#140 = DIRECTION ( 'NONE',  ( -3.491481338843133355E-15, 1.224646799147353207E-16, -1.000000000000000000 ) ) ;
#141 = ADVANCED_FACE ( 'NONE', ( #172, #29 ), #121, .T. ) ;
#142 = CARTESIAN_POINT ( 'NONE',  ( -1.282749433769087582E-30, 0.0000000000000000000, -3.673940397442059375E-16 ) ) ;
#143 = LOCAL_TIME ( 9, 48, 55.00000000000000000, #167 ) ;
#144 = DIRECTION ( 'NONE',  ( 1.000000000000000000, 0.0000000000000000000, -3.336006684570784876E-15 ) ) ;
#145 = PERSON_AND_ORGANIZATION ( #195, #117 ) ;
#146 = CC_DESIGN_APPROVAL ( #58, ( #171 ) ) ;
#147 = COORDINATED_UNIVERSAL_TIME_OFFSET ( 1, 0, .AHEAD. ) ;
#148 = ADVANCED_FACE ( 'NONE', ( #88, #75 ), #126, .T. ) ;
#149 = LOCAL_TIME ( 9, 48, 55.00000000000000000, #147 ) ;
#150 = DATE_AND_TIME ( #52, #143 ) ;
#151 = ORIENTED_EDGE ( 'NONE', *, *, #192, .T. ) ;
#152 = EDGE_LOOP ( 'NONE', ( #187 ) ) ;
#153 = EDGE_LOOP ( 'NONE', ( #23 ) ) ;
#154 = CARTESIAN_POINT ( 'NONE',  ( 1.316288464743861212E-13, -4.616918432785521081E-15, 37.69999999999999574 ) ) ;
#155 = DIRECTION ( 'NONE',  ( 4.275831445896958607E-31, 1.000000000000000000, 1.224646799147353207E-16 ) ) ;
#156 = EDGE_LOOP ( 'NONE', ( #136 ) ) ;
#157 = FACE_OUTER_BOUND ( 'NONE', #63, .T. ) ;
#158 = VERTEX_POINT ( 'NONE', #180 ) ;
#159 = VERTEX_POINT ( 'NONE', #10 ) ;
#160 = APPROVAL_STATUS ( 'not_yet_approved' ) ;
#161 = VERTEX_POINT ( 'NONE', #37 ) ;
#162 = ADVANCED_FACE ( 'NONE', ( #190 ), #44, .F. ) ;
#163 = DIRECTION ( 'NONE',  ( 1.000000000000000000, 0.0000000000000000000, -3.336006684570784876E-15 ) ) ;
#164 = PERSON_AND_ORGANIZATION ( #195, #117 ) ;
#165 = AXIS2_PLACEMENT_3D ( 'NONE', #102, #90, #155 ) ;
#166 = DESIGN_CONTEXT ( 'detailed design', #194, 'design' ) ;
#167 = COORDINATED_UNIVERSAL_TIME_OFFSET ( 1, 0, .AHEAD. ) ;
#168 = ORIENTED_EDGE ( 'NONE', *, *, #86, .T. ) ;
#169 = COORDINATED_UNIVERSAL_TIME_OFFSET ( 1, 0, .AHEAD. ) ;
#170 = CC_DESIGN_SECURITY_CLASSIFICATION ( #82, ( #32 ) ) ;
#171 = PRODUCT_DEFINITION ( 'UNKNOWN', '', #32, #166 ) ;
#172 = FACE_OUTER_BOUND ( 'NONE', #152, .T. ) ;
#173 = ORIENTED_EDGE ( 'NONE', *, *, #67, .T. ) ;
#174 = DIRECTION ( 'NONE',  ( -3.491481338843133355E-15, 1.224646799147353207E-16, -1.000000000000000000 ) ) ;
#175 = CIRCLE ( 'NONE', #205, 0.6500000000000000222 ) ;
#176 = EDGE_LOOP ( 'NONE', ( #17 ) ) ;
#177 = CARTESIAN_POINT ( 'NONE',  ( 0.0000000000000000000, 0.0000000000000000000, 0.0000000000000000000 ) ) ;
#178 = CARTESIAN_POINT ( 'NONE',  ( 0.6500000000000041300, 0.0000000000000000000, 1.299999999999996714 ) ) ;
#179 = CALENDAR_DATE ( 2021, 15, 11 ) ;
#180 = CARTESIAN_POINT ( 'NONE',  ( 1.316288464743861212E-13, 1.499999999999995337, 37.69999999999999574 ) ) ;
#181 = APPLICATION_CONTEXT ( 'configuration controlled 3d designs of mechanical parts and assemblies' ) ;
#182 = APPROVAL_PERSON_ORGANIZATION ( #72, #219, #115 ) ;
#183 = CARTESIAN_POINT ( 'NONE',  ( 0.6500000000000041300, 0.0000000000000000000, 1.299999999999996714 ) ) ;
#184 = DATE_AND_TIME ( #22, #193 ) ;
#185 = AXIS2_PLACEMENT_3D ( 'NONE', #122, #140, #91 ) ;
#186 = PERSON_AND_ORGANIZATION ( #195, #117 ) ;
#187 = ORIENTED_EDGE ( 'NONE', *, *, #12, .T. ) ;
#188 = FACE_OUTER_BOUND ( 'NONE', #25, .T. ) ;
#189 = CARTESIAN_POINT ( 'NONE',  ( 4.538925740496073362E-15, -1.879283765641540937E-16, 1.300000000000000044 ) ) ;
#190 = FACE_OUTER_BOUND ( 'NONE', #156, .T. ) ;
#191 = ORIENTED_EDGE ( 'NONE', *, *, #12, .F. ) ;
#192 = EDGE_CURVE ( 'NONE', #127, #127, #39, .T. ) ;
#193 = LOCAL_TIME ( 9, 48, 55.00000000000000000, #169 ) ;
#194 = APPLICATION_CONTEXT ( 'configuration controlled 3d designs of mechanical parts and assemblies' ) ;
#195 = PERSON ( 'UNSPECIFIED', 'UNSPECIFIED', 'UNSPECIFIED', ('UNSPECIFIED'), ('UNSPECIFIED'), ('UNSPECIFIED') ) ;
#196 = PLANE ( 'NONE',  #199 ) ;
#197 = PRODUCT_DEFINITION_SHAPE ( 'NONE', 'NONE',  #171 ) ;
#198 = DIRECTION ( 'NONE',  ( 3.491481338843133355E-15, -0.0000000000000000000, 1.000000000000000000 ) ) ;
#199 = AXIS2_PLACEMENT_3D ( 'NONE', #26, #42, #100 ) ;
#200 = LOCAL_TIME ( 9, 48, 55.00000000000000000, #106 ) ;
#201 = DIRECTION ( 'NONE',  ( 1.000000000000000000, 0.0000000000000000000, 0.0000000000000000000 ) ) ;
#202 = FACE_OUTER_BOUND ( 'NONE', #153, .T. ) ;
#203 = APPROVAL_DATE_TIME ( #150, #219 ) ;
#204 = DATE_TIME_ROLE ( 'classification_date' ) ;
#205 = AXIS2_PLACEMENT_3D ( 'NONE', #142, #57, #8 ) ;
#206 = ORIENTED_EDGE ( 'NONE', *, *, #84, .T. ) ;
#207 = MANIFOLD_SOLID_BREP ( 'Corps-Déplacer/Copier1[2]', #54 ) ;
#208 = ORIENTED_EDGE ( 'NONE', *, *, #67, .F. ) ;
#209 = CARTESIAN_POINT ( 'NONE',  ( 1.706818813202496464E-14, 0.0000000000000000000, 4.888523373199621602 ) ) ;
#210 = EDGE_LOOP ( 'NONE', ( #173 ) ) ;
#211 = CARTESIAN_POINT ( 'NONE',  ( 1.316288464743861212E-13, -4.616918432785521081E-15, 37.69999999999999574 ) ) ;
#212 = DIRECTION ( 'NONE',  ( 0.0000000000000000000, 1.000000000000000000, 0.0000000000000000000 ) ) ;
#213 = APPLICATION_PROTOCOL_DEFINITION ( 'international standard', 'config_control_design', 1994, #194 ) ;
#214 = CC_DESIGN_PERSON_AND_ORGANIZATION_ASSIGNMENT ( #80, #128, ( #35 ) ) ;
#215 = APPROVAL_DATE_TIME ( #36, #58 ) ;
#216 = AXIS2_PLACEMENT_3D ( 'NONE', #7, #77, #163 ) ;
#217 = AXIS2_PLACEMENT_3D ( 'NONE', #139, #105, #27 ) ;
#218 = ADVANCED_FACE ( 'NONE', ( #202, #69 ), #13, .F. ) ;
#219 = APPROVAL ( #131, 'UNSPECIFIED' ) ;
#220 = VERTEX_POINT ( 'NONE', #107 ) ;
#221 = DATE_AND_TIME ( #99, #149 ) ;
#222 = CC_DESIGN_PERSON_AND_ORGANIZATION_ASSIGNMENT ( #186, #41, ( #32 ) ) ;
#223 = EDGE_LOOP ( 'NONE', ( #151 ) ) ;
ENDSEC;
END-ISO-10303-21;
