ISO-10303-21;
HEADER;
FILE_DESCRIPTION (( 'STEP AP203' ),
    '1' );
FILE_NAME ('977788.step',
    '2021-11-15T08:48:55',
    ( '' ),
    ( '' ),
    'SwSTEP 2.0',
    'SolidWorks 2019',
    '' );
FILE_SCHEMA (( 'CONFIG_CONTROL_DESIGN' ));
ENDSEC;

DATA;
#1 = ADVANCED_FACE ( 'NONE', ( #153, #157 ), #123, .T. ) ;
#2 = DIRECTION ( 'NONE',  ( -3.491481338843133355E-15, 1.224646799147353207E-16, -1.000000000000000000 ) ) ;
#3 = EDGE_LOOP ( 'NONE', ( #69 ) ) ;
#4 = MECHANICAL_CONTEXT ( 'NONE', #73, 'mechanical' ) ;
#5 = LOCAL_TIME ( 9, 48, 55.00000000000000000, #100 ) ;
#6 = AXIS2_PLACEMENT_3D ( 'NONE', #222, #2, #192 ) ;
#7 = ORIENTED_EDGE ( 'NONE', *, *, #219, .T. ) ;
#8 = EDGE_CURVE ( 'NONE', #210, #210, #59, .T. ) ;
#9 = APPROVAL_STATUS ( 'not_yet_approved' ) ;
#10 = CARTESIAN_POINT ( 'NONE',  ( 0.0000000000000000000, 0.0000000000000000000, 0.0000000000000000000 ) ) ;
#11 = DIRECTION ( 'NONE',  ( 0.0000000000000000000, 0.0000000000000000000, 1.000000000000000000 ) ) ;
#12 = AXIS2_PLACEMENT_3D ( 'NONE', #130, #48, #43 ) ;
#13 = AXIS2_PLACEMENT_3D ( 'NONE', #98, #11, #84 ) ;
#14 = ADVANCED_FACE ( 'NONE', ( #121, #71 ), #172, .T. ) ;
#15 = PRODUCT_DEFINITION_FORMATION_WITH_SPECIFIED_SOURCE ( 'ANY', '', #58, .NOT_KNOWN. ) ;
#16 = CARTESIAN_POINT ( 'NONE',  ( 0.0000000000000000000, 0.0000000000000000000, 0.0000000000000000000 ) ) ;
#17 = DIRECTION ( 'NONE',  ( -3.491481338843133355E-15, 1.224646799147353207E-16, -1.000000000000000000 ) ) ;
#18 = AXIS2_PLACEMENT_3D ( 'NONE', #94, #75, #90 ) ;
#19 = CARTESIAN_POINT ( 'NONE',  ( 4.189777606611759237E-15, 0.0000000000000000000, 1.199999999999999956 ) ) ;
#20 = FACE_OUTER_BOUND ( 'NONE', #187, .T. ) ;
#21 = CIRCLE ( 'NONE', #6, 1.199999999999999956 ) ;
#22 = VERTEX_POINT ( 'NONE', #147 ) ;
#23 = PLANE ( 'NONE',  #220 ) ;
#24 = ORIENTED_EDGE ( 'NONE', *, *, #37, .T. ) ;
#25 = PERSON_AND_ORGANIZATION_ROLE ( 'classification_officer' ) ;
#26 = AXIS2_PLACEMENT_3D ( 'NONE', #140, #83, #191 ) ;
#27 = APPROVAL_DATE_TIME ( #216, #33 ) ;
#28 = EDGE_CURVE ( 'NONE', #165, #165, #161, .T. ) ;
#29 = EDGE_LOOP ( 'NONE', ( #7 ) ) ;
#30 = PERSON_AND_ORGANIZATION ( #55, #150 ) ;
#31 = DATE_AND_TIME ( #201, #5 ) ;
#32 = DESIGN_CONTEXT ( 'detailed design', #128, 'design' ) ;
#33 = APPROVAL ( #154, 'UNSPECIFIED' ) ;
#34 = ADVANCED_BREP_SHAPE_REPRESENTATION ( '977788', ( #145, #213, #13 ), #208 ) ;
#35 = AXIS2_PLACEMENT_3D ( 'NONE', #16, #36, #127 ) ;
#36 = DIRECTION ( 'NONE',  ( 3.491481338843133355E-15, -0.0000000000000000000, 1.000000000000000000 ) ) ;
#37 = EDGE_CURVE ( 'NONE', #108, #108, #21, .T. ) ;
#38 = CARTESIAN_POINT ( 'NONE',  ( 0.6000000000000040856, 0.0000000000000000000, 1.199999999999996625 ) ) ;
#39 = CC_DESIGN_SECURITY_CLASSIFICATION ( #134, ( #15 ) ) ;
#40 = DIRECTION ( 'NONE',  ( -3.491481338843133355E-15, 1.224646799147353207E-16, -1.000000000000000000 ) ) ;
#41 = CARTESIAN_POINT ( 'NONE',  ( 0.6000000000000040856, 0.0000000000000000000, 1.199999999999996625 ) ) ;
#42 = ADVANCED_FACE ( 'NONE', ( #111, #186 ), #148, .T. ) ;
#43 = DIRECTION ( 'NONE',  ( 1.000000000000000000, 0.0000000000000000000, -3.614007241618349165E-15 ) ) ;
#44 = ORIENTED_EDGE ( 'NONE', *, *, #8, .T. ) ;
#45 = DIRECTION ( 'NONE',  ( 4.275831445896958607E-31, 1.000000000000000000, 1.224646799147353207E-16 ) ) ;
#46 = ORIENTED_EDGE ( 'NONE', *, *, #146, .F. ) ;
#47 = AXIS2_PLACEMENT_3D ( 'NONE', #152, #176, #163 ) ;
#48 = DIRECTION ( 'NONE',  ( 3.491481338843133355E-15, -0.0000000000000000000, 1.000000000000000000 ) ) ;
#49 = ORIENTED_EDGE ( 'NONE', *, *, #37, .F. ) ;
#50 = CALENDAR_DATE ( 2021, 15, 11 ) ;
#51 = APPROVAL_PERSON_ORGANIZATION ( #133, #160, #68 ) ;
#52 = COORDINATED_UNIVERSAL_TIME_OFFSET ( 1, 0, .AHEAD. ) ;
#53 = APPROVAL_DATE_TIME ( #173, #144 ) ;
#54 = CC_DESIGN_DATE_AND_TIME_ASSIGNMENT ( #31, #81, ( #134 ) ) ;
#55 = PERSON ( 'UNSPECIFIED', 'UNSPECIFIED', 'UNSPECIFIED', ('UNSPECIFIED'), ('UNSPECIFIED'), ('UNSPECIFIED') ) ;
#56 = DIRECTION ( 'NONE',  ( 1.000000000000000000, 0.0000000000000000000, -3.614007241618349165E-15 ) ) ;
#57 = TOROIDAL_SURFACE ( 'NONE', #120, 8.599999999999999645, 8.000000000000000000 ) ;
#58 = PRODUCT ( '977788', '977788', '', ( #4 ) ) ;
#59 = CIRCLE ( 'NONE', #179, 0.5999999999999998668 ) ;
#60 = VERTEX_POINT ( 'NONE', #125 ) ;
#61 = CIRCLE ( 'NONE', #47, 1.500000000000000000 ) ;
#62 = CARTESIAN_POINT ( 'NONE',  ( -1.282749433769087582E-30, 0.0000000000000000000, -3.673940397442059375E-16 ) ) ;
#63 = CARTESIAN_POINT ( 'NONE',  ( 1.326762908760390423E-13, 1.199999999999995293, 38.00000000000000000 ) ) ;
#64 = CC_DESIGN_PERSON_AND_ORGANIZATION_ASSIGNMENT ( #214, #82, ( #58 ) ) ;
#65 = CIRCLE ( 'NONE', #18, 1.499999999999999778 ) ;
#66 = CC_DESIGN_APPROVAL ( #144, ( #134 ) ) ;
#67 = APPROVAL_ROLE ( '' ) ;
#68 = APPROVAL_ROLE ( '' ) ;
#69 = ORIENTED_EDGE ( 'NONE', *, *, #136, .F. ) ;
#70 = DATE_AND_TIME ( #116, #203 ) ;
#71 = FACE_OUTER_BOUND ( 'NONE', #184, .T. ) ;
#72 = PERSON_AND_ORGANIZATION ( #55, #150 ) ;
#73 = APPLICATION_CONTEXT ( 'configuration controlled 3d designs of mechanical parts and assemblies' ) ;
#74 = CC_DESIGN_PERSON_AND_ORGANIZATION_ASSIGNMENT ( #137, #158, ( #15 ) ) ;
#75 = DIRECTION ( 'NONE',  ( -3.491481338843133355E-15, 1.224646799147353207E-16, -1.000000000000000000 ) ) ;
#76 = CC_DESIGN_APPROVAL ( #160, ( #91 ) ) ;
#77 = DIRECTION ( 'NONE',  ( 3.491481338843133355E-15, -1.224646799147353207E-16, 1.000000000000000000 ) ) ;
#78 = ORIENTED_EDGE ( 'NONE', *, *, #28, .F. ) ;
#79 = DIRECTION ( 'NONE',  ( -4.275831445896958607E-31, -1.000000000000000000, -1.224646799147353207E-16 ) ) ;
#80 = ORIENTED_EDGE ( 'NONE', *, *, #8, .F. ) ;
#81 = DATE_TIME_ROLE ( 'classification_date' ) ;
#82 = PERSON_AND_ORGANIZATION_ROLE ( 'design_owner' ) ;
#83 = DIRECTION ( 'NONE',  ( -3.491481338843133355E-15, 1.224646799147353207E-16, -1.000000000000000000 ) ) ;
#84 = DIRECTION ( 'NONE',  ( 1.000000000000000000, 0.0000000000000000000, 0.0000000000000000000 ) ) ;
#85 = CIRCLE ( 'NONE', #12, 0.5999999999999998668 ) ;
#86 = APPLICATION_PROTOCOL_DEFINITION ( 'international standard', 'config_control_design', 1994, #73 ) ;
#87 = FACE_OUTER_BOUND ( 'NONE', #168, .T. ) ;
#88 = PLANE ( 'NONE',  #174 ) ;
#89 = CC_DESIGN_PERSON_AND_ORGANIZATION_ASSIGNMENT ( #119, #156, ( #91 ) ) ;
#90 = DIRECTION ( 'NONE',  ( 0.0000000000000000000, 1.000000000000000000, 0.0000000000000000000 ) ) ;
#91 = PRODUCT_DEFINITION ( 'UNKNOWN', '', #15, #32 ) ;
#92 = DIRECTION ( 'NONE',  ( 1.000000000000000000, 0.0000000000000000000, -3.491481338843132961E-15 ) ) ;
#93 = FACE_OUTER_BOUND ( 'NONE', #3, .T. ) ;
#94 = CARTESIAN_POINT ( 'NONE',  ( 1.316288464743861212E-13, -4.616918432785521081E-15, 37.69999999999999574 ) ) ;
#95 = DIRECTION ( 'NONE',  ( 3.491481338843133355E-15, -1.224646799147353207E-16, 1.000000000000000000 ) ) ;
#96 = ORIENTED_EDGE ( 'NONE', *, *, #136, .T. ) ;
#97 = CLOSED_SHELL ( 'NONE', ( #14, #1, #221, #217, #159 ) ) ;
#98 = CARTESIAN_POINT ( 'NONE',  ( 0.0000000000000000000, 0.0000000000000000000, 0.0000000000000000000 ) ) ;
#99 = ORIENTED_EDGE ( 'NONE', *, *, #28, .T. ) ;
#100 = COORDINATED_UNIVERSAL_TIME_OFFSET ( 1, 0, .AHEAD. ) ;
#101 = AXIS2_PLACEMENT_3D ( 'NONE', #10, #182, #122 ) ;
#102 = DIRECTION ( 'NONE',  ( 3.491481338843133355E-15, -0.0000000000000000000, 1.000000000000000000 ) ) ;
#103 = PERSON_AND_ORGANIZATION_ROLE ( 'design_supplier' ) ;
#104 = ADVANCED_FACE ( 'NONE', ( #106 ), #23, .T. ) ;
#105 = AXIS2_PLACEMENT_3D ( 'NONE', #113, #77, #151 ) ;
#106 = FACE_OUTER_BOUND ( 'NONE', #200, .T. ) ;
#107 = DIRECTION ( 'NONE',  ( 3.491481338843133355E-15, -0.0000000000000000000, 1.000000000000000000 ) ) ;
#108 = VERTEX_POINT ( 'NONE', #63 ) ;
#109 = CARTESIAN_POINT ( 'NONE',  ( 4.189777606611758449E-15, -1.734723475976806355E-16, 1.199999999999999734 ) ) ;
#110 = CARTESIAN_POINT ( 'NONE',  ( 0.5999999999999998668, 0.0000000000000000000, -2.462282843050085458E-15 ) ) ;
#111 = FACE_OUTER_BOUND ( 'NONE', #211, .T. ) ;
#112 = APPROVAL_ROLE ( '' ) ;
#113 = CARTESIAN_POINT ( 'NONE',  ( 4.189777606611758449E-15, -1.734723475976806355E-16, 1.199999999999999734 ) ) ;
#114 = CALENDAR_DATE ( 2021, 15, 11 ) ;
#115 = ORIENTED_EDGE ( 'NONE', *, *, #219, .F. ) ;
#116 = CALENDAR_DATE ( 2021, 15, 11 ) ;
#117 = CC_DESIGN_DATE_AND_TIME_ASSIGNMENT ( #70, #171, ( #91 ) ) ;
#118 = CALENDAR_DATE ( 2021, 15, 11 ) ;
#119 = PERSON_AND_ORGANIZATION ( #55, #150 ) ;
#120 = AXIS2_PLACEMENT_3D ( 'NONE', #19, #223, #180 ) ;
#121 = FACE_OUTER_BOUND ( 'NONE', #29, .T. ) ;
#122 = DIRECTION ( 'NONE',  ( 4.275831445896959482E-31, 1.000000000000000000, 1.224646799147353207E-16 ) ) ;
#123 = CONICAL_SURFACE ( 'NONE', #26, 1.499999999999999778, 0.7853981633974453924 ) ;
#124 =( LENGTH_UNIT ( ) NAMED_UNIT ( * ) SI_UNIT ( .MILLI., .METRE. ) );
#125 = CARTESIAN_POINT ( 'NONE',  ( 1.316288464743861212E-13, 1.499999999999995337, 37.69999999999999574 ) ) ;
#126 = AXIS2_PLACEMENT_3D ( 'NONE', #199, #17, #45 ) ;
#127 = DIRECTION ( 'NONE',  ( 1.000000000000000000, 0.0000000000000000000, -3.491481338843132961E-15 ) ) ;
#128 = APPLICATION_CONTEXT ( 'configuration controlled 3d designs of mechanical parts and assemblies' ) ;
#129 = PLANE ( 'NONE',  #126 ) ;
#130 = CARTESIAN_POINT ( 'NONE',  ( 4.189777606611756082E-15, 0.0000000000000000000, 1.199999999999998845 ) ) ;
#131 = EDGE_LOOP ( 'NONE', ( #115 ) ) ;
#132 = EDGE_LOOP ( 'NONE', ( #49 ) ) ;
#133 = PERSON_AND_ORGANIZATION ( #55, #150 ) ;
#134 = SECURITY_CLASSIFICATION ( '', '', #202 ) ;
#135 = SHAPE_DEFINITION_REPRESENTATION ( #142, #34 ) ;
#136 = EDGE_CURVE ( 'NONE', #185, #185, #85, .T. ) ;
#137 = PERSON_AND_ORGANIZATION ( #55, #150 ) ;
#138 = ORIENTED_EDGE ( 'NONE', *, *, #146, .T. ) ;
#139 = COORDINATED_UNIVERSAL_TIME_OFFSET ( 1, 0, .AHEAD. ) ;
#140 = CARTESIAN_POINT ( 'NONE',  ( 1.316288464743861212E-13, -4.616918432785521081E-15, 37.69999999999999574 ) ) ;
#141 = APPROVAL_STATUS ( 'not_yet_approved' ) ;
#142 = PRODUCT_DEFINITION_SHAPE ( 'NONE', 'NONE',  #91 ) ;
#143 = APPROVAL_PERSON_ORGANIZATION ( #30, #144, #67 ) ;
#144 = APPROVAL ( #9, 'UNSPECIFIED' ) ;
#145 = MANIFOLD_SOLID_BREP ( 'Corps-Déplacer/Copier1[1]', #97 ) ;
#146 = EDGE_CURVE ( 'NONE', #22, #22, #61, .T. ) ;
#147 = CARTESIAN_POINT ( 'NONE',  ( -1.499999999999982903, 0.0000000000000000000, 4.886461718233356066 ) ) ;
#148 = CYLINDRICAL_SURFACE ( 'NONE', #35, 0.5999999999999998668 ) ;
#149 = APPROVAL_PERSON_ORGANIZATION ( #218, #33, #112 ) ;
#150 = ORGANIZATION ( 'UNSPECIFIED', 'UNSPECIFIED', '' ) ;
#151 = DIRECTION ( 'NONE',  ( -4.275831445896958607E-31, -1.000000000000000000, -1.224646799147353207E-16 ) ) ;
#152 = CARTESIAN_POINT ( 'NONE',  ( 1.706098990218310036E-14, 0.0000000000000000000, 4.886461718233351625 ) ) ;
#153 = FACE_BOUND ( 'NONE', #209, .T. ) ;
#154 = APPROVAL_STATUS ( 'not_yet_approved' ) ;
#155 = COORDINATED_UNIVERSAL_TIME_OFFSET ( 1, 0, .AHEAD. ) ;
#156 = PERSON_AND_ORGANIZATION_ROLE ( 'creator' ) ;
#157 = FACE_OUTER_BOUND ( 'NONE', #131, .T. ) ;
#158 = PERSON_AND_ORGANIZATION_ROLE ( 'creator' ) ;
#159 = ADVANCED_FACE ( 'NONE', ( #93 ), #88, .F. ) ;
#160 = APPROVAL ( #141, 'UNSPECIFIED' ) ;
#161 = CIRCLE ( 'NONE', #164, 0.5999999999999998668 ) ;
#162 = FACE_OUTER_BOUND ( 'NONE', #198, .T. ) ;
#163 = DIRECTION ( 'NONE',  ( -1.000000000000000000, 0.0000000000000000000, 3.469446951953614189E-15 ) ) ;
#164 = AXIS2_PLACEMENT_3D ( 'NONE', #62, #107, #92 ) ;
#165 = VERTEX_POINT ( 'NONE', #110 ) ;
#166 = PLANE ( 'NONE',  #105 ) ;
#167 = DIRECTION ( 'NONE',  ( 4.275831445896958607E-31, 1.000000000000000000, 1.224646799147353207E-16 ) ) ;
#168 = EDGE_LOOP ( 'NONE', ( #46 ) ) ;
#169 = PRODUCT_RELATED_PRODUCT_CATEGORY ( 'detail', '', ( #58 ) ) ;
#170 = APPLICATION_PROTOCOL_DEFINITION ( 'international standard', 'config_control_design', 1994, #128 ) ;
#171 = DATE_TIME_ROLE ( 'creation_date' ) ;
#172 = CYLINDRICAL_SURFACE ( 'NONE', #101, 1.500000000000000000 ) ;
#173 = DATE_AND_TIME ( #118, #196 ) ;
#174 = AXIS2_PLACEMENT_3D ( 'NONE', #109, #95, #79 ) ;
#175 = LOCAL_TIME ( 9, 48, 55.00000000000000000, #52 ) ;
#176 = DIRECTION ( 'NONE',  ( 3.491481338843133355E-15, -0.0000000000000000000, 1.000000000000000000 ) ) ;
#177 = FACE_OUTER_BOUND ( 'NONE', #132, .T. ) ;
#178 = LOCAL_TIME ( 9, 48, 55.00000000000000000, #139 ) ;
#179 = AXIS2_PLACEMENT_3D ( 'NONE', #206, #102, #56 ) ;
#180 = DIRECTION ( 'NONE',  ( 1.000000000000000000, 0.0000000000000000000, -3.491481338843133355E-15 ) ) ;
#181 = CC_DESIGN_PERSON_AND_ORGANIZATION_ASSIGNMENT ( #72, #103, ( #15 ) ) ;
#182 = DIRECTION ( 'NONE',  ( -3.491481338843133355E-15, 1.224646799147353207E-16, -1.000000000000000000 ) ) ;
#183 =( NAMED_UNIT ( * ) PLANE_ANGLE_UNIT ( ) SI_UNIT ( $, .RADIAN. ) );
#184 = EDGE_LOOP ( 'NONE', ( #138 ) ) ;
#185 = VERTEX_POINT ( 'NONE', #38 ) ;
#186 = FACE_OUTER_BOUND ( 'NONE', #215, .T. ) ;
#187 = EDGE_LOOP ( 'NONE', ( #44 ) ) ;
#188 = PERSON_AND_ORGANIZATION ( #55, #150 ) ;
#189 = DATE_AND_TIME ( #50, #175 ) ;
#190 = APPROVAL_DATE_TIME ( #189, #160 ) ;
#191 = DIRECTION ( 'NONE',  ( 0.0000000000000000000, 1.000000000000000000, 0.0000000000000000000 ) ) ;
#192 = DIRECTION ( 'NONE',  ( 0.0000000000000000000, 1.000000000000000000, 0.0000000000000000000 ) ) ;
#193 = CC_DESIGN_PERSON_AND_ORGANIZATION_ASSIGNMENT ( #188, #25, ( #134 ) ) ;
#194 = CLOSED_SHELL ( 'NONE', ( #195, #42, #104 ) ) ;
#195 = ADVANCED_FACE ( 'NONE', ( #20 ), #166, .T. ) ;
#196 = LOCAL_TIME ( 9, 48, 55.00000000000000000, #204 ) ;
#197 = CARTESIAN_POINT ( 'NONE',  ( -3.206873584422719393E-31, 1.124819836996393206E-32, -9.184850993605149670E-17 ) ) ;
#198 = EDGE_LOOP ( 'NONE', ( #96 ) ) ;
#199 = CARTESIAN_POINT ( 'NONE',  ( 1.326762908760390423E-13, 8.998558695971077224E-33, 38.00000000000000000 ) ) ;
#200 = EDGE_LOOP ( 'NONE', ( #78 ) ) ;
#201 = CALENDAR_DATE ( 2021, 15, 11 ) ;
#202 = SECURITY_CLASSIFICATION_LEVEL ( 'unclassified' ) ;
#203 = LOCAL_TIME ( 9, 48, 55.00000000000000000, #155 ) ;
#204 = COORDINATED_UNIVERSAL_TIME_OFFSET ( 1, 0, .AHEAD. ) ;
#205 = UNCERTAINTY_MEASURE_WITH_UNIT (LENGTH_MEASURE( 1.000000000000000082E-05 ), #124, 'distance_accuracy_value', 'NONE');
#206 = CARTESIAN_POINT ( 'NONE',  ( 4.189777606611756082E-15, 0.0000000000000000000, 1.199999999999998845 ) ) ;
#207 = CC_DESIGN_APPROVAL ( #33, ( #15 ) ) ;
#208 =( GEOMETRIC_REPRESENTATION_CONTEXT ( 3 ) GLOBAL_UNCERTAINTY_ASSIGNED_CONTEXT ( ( #205 ) ) GLOBAL_UNIT_ASSIGNED_CONTEXT ( ( #124, #183, #212 ) ) REPRESENTATION_CONTEXT ( 'NONE', 'WORKASPACE' ) );
#209 = EDGE_LOOP ( 'NONE', ( #24 ) ) ;
#210 = VERTEX_POINT ( 'NONE', #41 ) ;
#211 = EDGE_LOOP ( 'NONE', ( #99 ) ) ;
#212 =( NAMED_UNIT ( * ) SI_UNIT ( $, .STERADIAN. ) SOLID_ANGLE_UNIT ( ) );
#213 = MANIFOLD_SOLID_BREP ( 'Corps-Déplacer/Copier1[2]', #194 ) ;
#214 = PERSON_AND_ORGANIZATION ( #55, #150 ) ;
#215 = EDGE_LOOP ( 'NONE', ( #80 ) ) ;
#216 = DATE_AND_TIME ( #114, #178 ) ;
#217 = ADVANCED_FACE ( 'NONE', ( #87, #162 ), #57, .F. ) ;
#218 = PERSON_AND_ORGANIZATION ( #55, #150 ) ;
#219 = EDGE_CURVE ( 'NONE', #60, #60, #65, .T. ) ;
#220 = AXIS2_PLACEMENT_3D ( 'NONE', #197, #40, #167 ) ;
#221 = ADVANCED_FACE ( 'NONE', ( #177 ), #129, .F. ) ;
#222 = CARTESIAN_POINT ( 'NONE',  ( 1.326762908760390423E-13, -4.653657836759941941E-15, 38.00000000000000000 ) ) ;
#223 = DIRECTION ( 'NONE',  ( 3.491481338843133355E-15, -0.0000000000000000000, 1.000000000000000000 ) ) ;
ENDSEC;
END-ISO-10303-21;
