ISO-10303-21;
HEADER;
FILE_DESCRIPTION (( 'STEP AP203' ),
    '1' );
FILE_NAME ('977787.step',
    '2021-11-15T08:48:54',
    ( '' ),
    ( '' ),
    'SwSTEP 2.0',
    'SolidWorks 2019',
    '' );
FILE_SCHEMA (( 'CONFIG_CONTROL_DESIGN' ));
ENDSEC;

DATA;
#1 = DIRECTION ( 'NONE',  ( -4.275831445896958607E-31, -1.000000000000000000, -1.224646799147353207E-16 ) ) ;
#2 = SECURITY_CLASSIFICATION ( '', '', #146 ) ;
#3 = VERTEX_POINT ( 'NONE', #96 ) ;
#4 = COORDINATED_UNIVERSAL_TIME_OFFSET ( 1, 0, .AHEAD. ) ;
#5 = APPROVAL ( #61, 'UNSPECIFIED' ) ;
#6 = PERSON_AND_ORGANIZATION_ROLE ( 'design_owner' ) ;
#7 = VERTEX_POINT ( 'NONE', #45 ) ;
#8 = DIRECTION ( 'NONE',  ( -3.491481338843133355E-15, 1.224646799147353207E-16, -1.000000000000000000 ) ) ;
#9 = PERSON_AND_ORGANIZATION ( #117, #135 ) ;
#10 = ORIENTED_EDGE ( 'NONE', *, *, #26, .T. ) ;
#11 = EDGE_LOOP ( 'NONE', ( #185 ) ) ;
#12 = MANIFOLD_SOLID_BREP ( 'Corps-Déplacer/Copier1[1]', #144 ) ;
#13 = CC_DESIGN_PERSON_AND_ORGANIZATION_ASSIGNMENT ( #76, #130, ( #145 ) ) ;
#14 = AXIS2_PLACEMENT_3D ( 'NONE', #188, #20, #86 ) ;
#15 = ORIENTED_EDGE ( 'NONE', *, *, #58, .F. ) ;
#16 = CC_DESIGN_PERSON_AND_ORGANIZATION_ASSIGNMENT ( #110, #28, ( #145 ) ) ;
#17 = CYLINDRICAL_SURFACE ( 'NONE', #215, 0.5500000000000001554 ) ;
#18 = DIRECTION ( 'NONE',  ( 3.491481338843133355E-15, -1.224646799147353207E-16, 1.000000000000000000 ) ) ;
#19 = AXIS2_PLACEMENT_3D ( 'NONE', #49, #113, #80 ) ;
#20 = DIRECTION ( 'NONE',  ( 3.491481338843133355E-15, -0.0000000000000000000, 1.000000000000000000 ) ) ;
#21 = DIRECTION ( 'NONE',  ( 0.0000000000000000000, 1.000000000000000000, 0.0000000000000000000 ) ) ;
#22 = DIRECTION ( 'NONE',  ( 3.491481338843133355E-15, -0.0000000000000000000, 1.000000000000000000 ) ) ;
#23 = DIRECTION ( 'NONE',  ( 0.0000000000000000000, 0.0000000000000000000, 1.000000000000000000 ) ) ;
#24 = LOCAL_TIME ( 9, 48, 54.00000000000000000, #92 ) ;
#25 = DATE_AND_TIME ( #179, #24 ) ;
#26 = EDGE_CURVE ( 'NONE', #3, #3, #33, .T. ) ;
#27 = APPLICATION_PROTOCOL_DEFINITION ( 'international standard', 'config_control_design', 1994, #109 ) ;
#28 = PERSON_AND_ORGANIZATION_ROLE ( 'creator' ) ;
#29 = CIRCLE ( 'NONE', #148, 1.499999999999999778 ) ;
#30 = CARTESIAN_POINT ( 'NONE',  ( 1.316288464743861212E-13, 1.499999999999995337, 37.69999999999999574 ) ) ;
#31 = DATE_AND_TIME ( #199, #220 ) ;
#32 = EDGE_LOOP ( 'NONE', ( #181 ) ) ;
#33 = CIRCLE ( 'NONE', #118, 1.199999999999999956 ) ;
#34 = EDGE_LOOP ( 'NONE', ( #10 ) ) ;
#35 = DATE_AND_TIME ( #79, #149 ) ;
#36 = EDGE_LOOP ( 'NONE', ( #100 ) ) ;
#37 = CARTESIAN_POINT ( 'NONE',  ( 0.0000000000000000000, 0.0000000000000000000, 0.0000000000000000000 ) ) ;
#38 = FACE_OUTER_BOUND ( 'NONE', #11, .T. ) ;
#39 = CARTESIAN_POINT ( 'NONE',  ( 3.840629472727446691E-15, -1.590163186312072759E-16, 1.099999999999999867 ) ) ;
#40 = CIRCLE ( 'NONE', #48, 1.500000000000000000 ) ;
#41 = FACE_OUTER_BOUND ( 'NONE', #151, .T. ) ;
#42 = DIRECTION ( 'NONE',  ( -3.491481338843133355E-15, 1.224646799147353207E-16, -1.000000000000000000 ) ) ;
#43 = VERTEX_POINT ( 'NONE', #30 ) ;
#44 = APPROVAL_PERSON_ORGANIZATION ( #177, #194, #126 ) ;
#45 = CARTESIAN_POINT ( 'NONE',  ( -1.499999999999982903, 0.0000000000000000000, 4.881203512110929843 ) ) ;
#46 = APPROVAL_ROLE ( '' ) ;
#47 = APPROVAL_DATE_TIME ( #129, #5 ) ;
#48 = AXIS2_PLACEMENT_3D ( 'NONE', #51, #214, #63 ) ;
#49 = CARTESIAN_POINT ( 'NONE',  ( 1.326762908760390423E-13, 8.998558695971077224E-33, 38.00000000000000000 ) ) ;
#50 = EDGE_LOOP ( 'NONE', ( #133 ) ) ;
#51 = CARTESIAN_POINT ( 'NONE',  ( 1.704263097363085580E-14, 0.0000000000000000000, 4.881203512110924514 ) ) ;
#52 = EDGE_LOOP ( 'NONE', ( #218 ) ) ;
#53 = AXIS2_PLACEMENT_3D ( 'NONE', #39, #152, #1 ) ;
#54 = DIRECTION ( 'NONE',  ( -4.275831445896958607E-31, -1.000000000000000000, -1.224646799147353207E-16 ) ) ;
#55 = DIRECTION ( 'NONE',  ( 3.491481338843133355E-15, -0.0000000000000000000, 1.000000000000000000 ) ) ;
#56 = CARTESIAN_POINT ( 'NONE',  ( 0.0000000000000000000, 0.0000000000000000000, 0.0000000000000000000 ) ) ;
#57 = CARTESIAN_POINT ( 'NONE',  ( 0.0000000000000000000, 0.0000000000000000000, 0.0000000000000000000 ) ) ;
#58 = EDGE_CURVE ( 'NONE', #7, #7, #40, .T. ) ;
#59 = PERSON_AND_ORGANIZATION ( #117, #135 ) ;
#60 = PERSON_AND_ORGANIZATION ( #117, #135 ) ;
#61 = APPROVAL_STATUS ( 'not_yet_approved' ) ;
#62 = CIRCLE ( 'NONE', #67, 0.5500000000000001554 ) ;
#63 = DIRECTION ( 'NONE',  ( -1.000000000000000000, 0.0000000000000000000, 3.469446951953614189E-15 ) ) ;
#64 = EDGE_LOOP ( 'NONE', ( #168 ) ) ;
#65 = ORIENTED_EDGE ( 'NONE', *, *, #26, .F. ) ;
#66 = AXIS2_PLACEMENT_3D ( 'NONE', #169, #22, #124 ) ;
#67 = AXIS2_PLACEMENT_3D ( 'NONE', #107, #154, #221 ) ;
#68 = ORIENTED_EDGE ( 'NONE', *, *, #139, .T. ) ;
#69 = ADVANCED_FACE ( 'NONE', ( #131 ), #197, .F. ) ;
#70 = FACE_OUTER_BOUND ( 'NONE', #50, .T. ) ;
#71 = FACE_OUTER_BOUND ( 'NONE', #52, .T. ) ;
#72 = FACE_OUTER_BOUND ( 'NONE', #101, .T. ) ;
#73 = APPLICATION_CONTEXT ( 'configuration controlled 3d designs of mechanical parts and assemblies' ) ;
#74 = DIRECTION ( 'NONE',  ( -3.491481338843133355E-15, 1.224646799147353207E-16, -1.000000000000000000 ) ) ;
#75 =( NAMED_UNIT ( * ) SI_UNIT ( $, .STERADIAN. ) SOLID_ANGLE_UNIT ( ) );
#76 = PERSON_AND_ORGANIZATION ( #117, #135 ) ;
#77 = DIRECTION ( 'NONE',  ( 0.0000000000000000000, 1.000000000000000000, 0.0000000000000000000 ) ) ;
#78 = CC_DESIGN_DATE_AND_TIME_ASSIGNMENT ( #31, #112, ( #2 ) ) ;
#79 = CALENDAR_DATE ( 2021, 15, 11 ) ;
#80 = DIRECTION ( 'NONE',  ( 4.275831445896958607E-31, 1.000000000000000000, 1.224646799147353207E-16 ) ) ;
#81 = COORDINATED_UNIVERSAL_TIME_OFFSET ( 1, 0, .AHEAD. ) ;
#82 = TOROIDAL_SURFACE ( 'NONE', #14, 8.550000000000000711, 8.000000000000000000 ) ;
#83 = CC_DESIGN_APPROVAL ( #93, ( #2 ) ) ;
#84 = PRODUCT_RELATED_PRODUCT_CATEGORY ( 'detail', '', ( #102 ) ) ;
#85 = APPROVAL_ROLE ( '' ) ;
#86 = DIRECTION ( 'NONE',  ( 1.000000000000000000, 0.0000000000000000000, -3.491481338843133355E-15 ) ) ;
#87 = CC_DESIGN_DATE_AND_TIME_ASSIGNMENT ( #128, #140, ( #159 ) ) ;
#88 = FACE_OUTER_BOUND ( 'NONE', #64, .T. ) ;
#89 = CLOSED_SHELL ( 'NONE', ( #97, #143, #155 ) ) ;
#90 = AXIS2_PLACEMENT_3D ( 'NONE', #57, #23, #160 ) ;
#91 = PERSON_AND_ORGANIZATION_ROLE ( 'creator' ) ;
#92 = COORDINATED_UNIVERSAL_TIME_OFFSET ( 1, 0, .AHEAD. ) ;
#93 = APPROVAL ( #201, 'UNSPECIFIED' ) ;
#94 = AXIS2_PLACEMENT_3D ( 'NONE', #174, #74, #207 ) ;
#95 = CARTESIAN_POINT ( 'NONE',  ( 0.5500000000000001554, 0.0000000000000000000, -2.287708776107929973E-15 ) ) ;
#96 = CARTESIAN_POINT ( 'NONE',  ( 1.326762908760390423E-13, 1.199999999999995293, 38.00000000000000000 ) ) ;
#97 = ADVANCED_FACE ( 'NONE', ( #167 ), #150, .T. ) ;
#98 = EDGE_LOOP ( 'NONE', ( #200 ) ) ;
#99 = LOCAL_TIME ( 9, 48, 54.00000000000000000, #161 ) ;
#100 = ORIENTED_EDGE ( 'NONE', *, *, #132, .F. ) ;
#101 = EDGE_LOOP ( 'NONE', ( #15 ) ) ;
#102 = PRODUCT ( '977787', '977787', '', ( #208 ) ) ;
#103 = ORIENTED_EDGE ( 'NONE', *, *, #58, .T. ) ;
#104 = DIRECTION ( 'NONE',  ( -3.491481338843133355E-15, 1.224646799147353207E-16, -1.000000000000000000 ) ) ;
#105 = CARTESIAN_POINT ( 'NONE',  ( 1.316288464743861212E-13, -4.616918432785521081E-15, 37.69999999999999574 ) ) ;
#106 = CARTESIAN_POINT ( 'NONE',  ( 3.840629472727446691E-15, -1.590163186312072759E-16, 1.099999999999999867 ) ) ;
#107 = CARTESIAN_POINT ( 'NONE',  ( 3.840629472727443535E-15, 0.0000000000000000000, 1.099999999999998979 ) ) ;
#108 = CALENDAR_DATE ( 2021, 15, 11 ) ;
#109 = APPLICATION_CONTEXT ( 'configuration controlled 3d designs of mechanical parts and assemblies' ) ;
#110 = PERSON_AND_ORGANIZATION ( #117, #135 ) ;
#111 =( NAMED_UNIT ( * ) PLANE_ANGLE_UNIT ( ) SI_UNIT ( $, .RADIAN. ) );
#112 = DATE_TIME_ROLE ( 'classification_date' ) ;
#113 = DIRECTION ( 'NONE',  ( -3.491481338843133355E-15, 1.224646799147353207E-16, -1.000000000000000000 ) ) ;
#114 = CC_DESIGN_SECURITY_CLASSIFICATION ( #2, ( #145 ) ) ;
#115 = EDGE_LOOP ( 'NONE', ( #103 ) ) ;
#116 = CC_DESIGN_PERSON_AND_ORGANIZATION_ASSIGNMENT ( #141, #91, ( #159 ) ) ;
#117 = PERSON ( 'UNSPECIFIED', 'UNSPECIFIED', 'UNSPECIFIED', ('UNSPECIFIED'), ('UNSPECIFIED'), ('UNSPECIFIED') ) ;
#118 = AXIS2_PLACEMENT_3D ( 'NONE', #202, #8, #77 ) ;
#119 = AXIS2_PLACEMENT_3D ( 'NONE', #123, #137, #210 ) ;
#120 = ADVANCED_FACE ( 'NONE', ( #88, #186 ), #138, .T. ) ;
#121 = DESIGN_CONTEXT ( 'detailed design', #73, 'design' ) ;
#122 = DIRECTION ( 'NONE',  ( 1.000000000000000000, 0.0000000000000000000, -3.491481338843133750E-15 ) ) ;
#123 = CARTESIAN_POINT ( 'NONE',  ( 1.316288464743861212E-13, -4.616918432785521081E-15, 37.69999999999999574 ) ) ;
#124 = DIRECTION ( 'NONE',  ( 1.000000000000000000, 0.0000000000000000000, -3.491481338843133750E-15 ) ) ;
#125 = VERTEX_POINT ( 'NONE', #195 ) ;
#126 = APPROVAL_ROLE ( '' ) ;
#127 = ADVANCED_FACE ( 'NONE', ( #171 ), #204, .F. ) ;
#128 = DATE_AND_TIME ( #142, #198 ) ;
#129 = DATE_AND_TIME ( #108, #99 ) ;
#130 = PERSON_AND_ORGANIZATION_ROLE ( 'design_supplier' ) ;
#131 = FACE_OUTER_BOUND ( 'NONE', #183, .T. ) ;
#132 = EDGE_CURVE ( 'NONE', #193, #193, #162, .T. ) ;
#133 = ORIENTED_EDGE ( 'NONE', *, *, #212, .F. ) ;
#134 = CARTESIAN_POINT ( 'NONE',  ( 3.840629472727443535E-15, 0.0000000000000000000, 1.099999999999998979 ) ) ;
#135 = ORGANIZATION ( 'UNSPECIFIED', 'UNSPECIFIED', '' ) ;
#136 = UNCERTAINTY_MEASURE_WITH_UNIT (LENGTH_MEASURE( 1.000000000000000082E-05 ), #164, 'distance_accuracy_value', 'NONE');
#137 = DIRECTION ( 'NONE',  ( -3.491481338843133355E-15, 1.224646799147353207E-16, -1.000000000000000000 ) ) ;
#138 = CYLINDRICAL_SURFACE ( 'NONE', #205, 1.500000000000000000 ) ;
#139 = EDGE_CURVE ( 'NONE', #190, #190, #182, .T. ) ;
#140 = DATE_TIME_ROLE ( 'creation_date' ) ;
#141 = PERSON_AND_ORGANIZATION ( #117, #135 ) ;
#142 = CALENDAR_DATE ( 2021, 15, 11 ) ;
#143 = ADVANCED_FACE ( 'NONE', ( #41, #70 ), #17, .T. ) ;
#144 = CLOSED_SHELL ( 'NONE', ( #120, #216, #69, #176, #127 ) ) ;
#145 = PRODUCT_DEFINITION_FORMATION_WITH_SPECIFIED_SOURCE ( 'ANY', '', #102, .NOT_KNOWN. ) ;
#146 = SECURITY_CLASSIFICATION_LEVEL ( 'unclassified' ) ;
#147 = PERSON_AND_ORGANIZATION_ROLE ( 'classification_officer' ) ;
#148 = AXIS2_PLACEMENT_3D ( 'NONE', #105, #104, #21 ) ;
#149 = LOCAL_TIME ( 9, 48, 54.00000000000000000, #211 ) ;
#150 = PLANE ( 'NONE',  #53 ) ;
#151 = EDGE_LOOP ( 'NONE', ( #68 ) ) ;
#152 = DIRECTION ( 'NONE',  ( 3.491481338843133355E-15, -1.224646799147353207E-16, 1.000000000000000000 ) ) ;
#153 = AXIS2_PLACEMENT_3D ( 'NONE', #106, #18, #54 ) ;
#154 = DIRECTION ( 'NONE',  ( 3.491481338843133355E-15, -0.0000000000000000000, 1.000000000000000000 ) ) ;
#155 = ADVANCED_FACE ( 'NONE', ( #189 ), #156, .T. ) ;
#156 = PLANE ( 'NONE',  #94 ) ;
#157 = CC_DESIGN_APPROVAL ( #5, ( #145 ) ) ;
#158 = APPLICATION_PROTOCOL_DEFINITION ( 'international standard', 'config_control_design', 1994, #73 ) ;
#159 = PRODUCT_DEFINITION ( 'UNKNOWN', '', #145, #121 ) ;
#160 = DIRECTION ( 'NONE',  ( 1.000000000000000000, 0.0000000000000000000, 0.0000000000000000000 ) ) ;
#161 = COORDINATED_UNIVERSAL_TIME_OFFSET ( 1, 0, .AHEAD. ) ;
#162 = CIRCLE ( 'NONE', #178, 0.5500000000000001554 ) ;
#163 = MANIFOLD_SOLID_BREP ( 'Corps-Déplacer/Copier1[2]', #89 ) ;
#164 =( LENGTH_UNIT ( ) NAMED_UNIT ( * ) SI_UNIT ( .MILLI., .METRE. ) );
#165 = APPROVAL_STATUS ( 'not_yet_approved' ) ;
#166 = CC_DESIGN_APPROVAL ( #194, ( #159 ) ) ;
#167 = FACE_OUTER_BOUND ( 'NONE', #98, .T. ) ;
#168 = ORIENTED_EDGE ( 'NONE', *, *, #172, .T. ) ;
#169 = CARTESIAN_POINT ( 'NONE',  ( -1.282749433769087582E-30, 0.0000000000000000000, -3.673940397442059375E-16 ) ) ;
#170 = DIRECTION ( 'NONE',  ( 1.000000000000000000, 0.0000000000000000000, -3.548298019043467945E-15 ) ) ;
#171 = FACE_OUTER_BOUND ( 'NONE', #36, .T. ) ;
#172 = EDGE_CURVE ( 'NONE', #43, #43, #29, .T. ) ;
#173 = ADVANCED_BREP_SHAPE_REPRESENTATION ( '977787', ( #12, #163, #90 ), #209 ) ;
#174 = CARTESIAN_POINT ( 'NONE',  ( -3.206873584422719393E-31, 1.124819836996393206E-32, -9.184850993605149670E-17 ) ) ;
#175 = DIRECTION ( 'NONE',  ( 3.491481338843133355E-15, -0.0000000000000000000, 1.000000000000000000 ) ) ;
#176 = ADVANCED_FACE ( 'NONE', ( #72, #38 ), #82, .F. ) ;
#177 = PERSON_AND_ORGANIZATION ( #117, #135 ) ;
#178 = AXIS2_PLACEMENT_3D ( 'NONE', #134, #55, #170 ) ;
#179 = CALENDAR_DATE ( 2021, 15, 11 ) ;
#180 = APPROVAL_DATE_TIME ( #25, #194 ) ;
#181 = ORIENTED_EDGE ( 'NONE', *, *, #139, .F. ) ;
#182 = CIRCLE ( 'NONE', #66, 0.5500000000000001554 ) ;
#183 = EDGE_LOOP ( 'NONE', ( #65 ) ) ;
#184 = APPROVAL_DATE_TIME ( #35, #93 ) ;
#185 = ORIENTED_EDGE ( 'NONE', *, *, #132, .T. ) ;
#186 = FACE_OUTER_BOUND ( 'NONE', #115, .T. ) ;
#187 = CC_DESIGN_PERSON_AND_ORGANIZATION_ASSIGNMENT ( #9, #147, ( #2 ) ) ;
#188 = CARTESIAN_POINT ( 'NONE',  ( 3.840629472727447480E-15, 0.0000000000000000000, 1.100000000000000089 ) ) ;
#189 = FACE_OUTER_BOUND ( 'NONE', #32, .T. ) ;
#190 = VERTEX_POINT ( 'NONE', #95 ) ;
#191 = APPROVAL_PERSON_ORGANIZATION ( #60, #5, #46 ) ;
#192 = CARTESIAN_POINT ( 'NONE',  ( 0.5500000000000039302, 0.0000000000000000000, 1.099999999999996980 ) ) ;
#193 = VERTEX_POINT ( 'NONE', #192 ) ;
#194 = APPROVAL ( #165, 'UNSPECIFIED' ) ;
#195 = CARTESIAN_POINT ( 'NONE',  ( 0.5500000000000039302, 0.0000000000000000000, 1.099999999999996980 ) ) ;
#196 = PERSON_AND_ORGANIZATION ( #117, #135 ) ;
#197 = PLANE ( 'NONE',  #19 ) ;
#198 = LOCAL_TIME ( 9, 48, 54.00000000000000000, #4 ) ;
#199 = CALENDAR_DATE ( 2021, 15, 11 ) ;
#200 = ORIENTED_EDGE ( 'NONE', *, *, #212, .T. ) ;
#201 = APPROVAL_STATUS ( 'not_yet_approved' ) ;
#202 = CARTESIAN_POINT ( 'NONE',  ( 1.326762908760390423E-13, -4.653657836759941941E-15, 38.00000000000000000 ) ) ;
#203 = CONICAL_SURFACE ( 'NONE', #119, 1.499999999999999778, 0.7853981633974453924 ) ;
#204 = PLANE ( 'NONE',  #153 ) ;
#205 = AXIS2_PLACEMENT_3D ( 'NONE', #37, #42, #206 ) ;
#206 = DIRECTION ( 'NONE',  ( 4.275831445896959482E-31, 1.000000000000000000, 1.224646799147353207E-16 ) ) ;
#207 = DIRECTION ( 'NONE',  ( 4.275831445896958607E-31, 1.000000000000000000, 1.224646799147353207E-16 ) ) ;
#208 = MECHANICAL_CONTEXT ( 'NONE', #109, 'mechanical' ) ;
#209 =( GEOMETRIC_REPRESENTATION_CONTEXT ( 3 ) GLOBAL_UNCERTAINTY_ASSIGNED_CONTEXT ( ( #136 ) ) GLOBAL_UNIT_ASSIGNED_CONTEXT ( ( #164, #111, #75 ) ) REPRESENTATION_CONTEXT ( 'NONE', 'WORKASPACE' ) );
#210 = DIRECTION ( 'NONE',  ( 0.0000000000000000000, 1.000000000000000000, 0.0000000000000000000 ) ) ;
#211 = COORDINATED_UNIVERSAL_TIME_OFFSET ( 1, 0, .AHEAD. ) ;
#212 = EDGE_CURVE ( 'NONE', #125, #125, #62, .T. ) ;
#213 = APPROVAL_PERSON_ORGANIZATION ( #196, #93, #85 ) ;
#214 = DIRECTION ( 'NONE',  ( 3.491481338843133355E-15, -0.0000000000000000000, 1.000000000000000000 ) ) ;
#215 = AXIS2_PLACEMENT_3D ( 'NONE', #56, #175, #122 ) ;
#216 = ADVANCED_FACE ( 'NONE', ( #223, #71 ), #203, .T. ) ;
#217 = SHAPE_DEFINITION_REPRESENTATION ( #222, #173 ) ;
#218 = ORIENTED_EDGE ( 'NONE', *, *, #172, .F. ) ;
#219 = CC_DESIGN_PERSON_AND_ORGANIZATION_ASSIGNMENT ( #59, #6, ( #102 ) ) ;
#220 = LOCAL_TIME ( 9, 48, 54.00000000000000000, #81 ) ;
#221 = DIRECTION ( 'NONE',  ( 1.000000000000000000, 0.0000000000000000000, -3.548298019043467945E-15 ) ) ;
#222 = PRODUCT_DEFINITION_SHAPE ( 'NONE', 'NONE',  #159 ) ;
#223 = FACE_BOUND ( 'NONE', #34, .T. ) ;
ENDSEC;
END-ISO-10303-21;
