ISO-10303-21;
HEADER;
FILE_DESCRIPTION (( 'STEP AP203' ),
    '1' );
FILE_NAME ('977786.step',
    '2021-11-15T08:48:54',
    ( '' ),
    ( '' ),
    'SwSTEP 2.0',
    'SolidWorks 2019',
    '' );
FILE_SCHEMA (( 'CONFIG_CONTROL_DESIGN' ));
ENDSEC;

DATA;
#1 = LOCAL_TIME ( 9, 48, 54.00000000000000000, #185 ) ;
#2 = PERSON ( 'UNSPECIFIED', 'UNSPECIFIED', 'UNSPECIFIED', ('UNSPECIFIED'), ('UNSPECIFIED'), ('UNSPECIFIED') ) ;
#3 = CARTESIAN_POINT ( 'NONE',  ( -1.499999999999983125, 0.0000000000000000000, 4.872983346207420574 ) ) ;
#4 = AXIS2_PLACEMENT_3D ( 'NONE', #44, #194, #149 ) ;
#5 = EDGE_LOOP ( 'NONE', ( #130 ) ) ;
#6 = APPROVAL_DATE_TIME ( #11, #29 ) ;
#7 = EDGE_LOOP ( 'NONE', ( #49 ) ) ;
#8 = PERSON_AND_ORGANIZATION ( #2, #33 ) ;
#9 = FACE_OUTER_BOUND ( 'NONE', #52, .T. ) ;
#10 = AXIS2_PLACEMENT_3D ( 'NONE', #160, #150, #16 ) ;
#11 = DATE_AND_TIME ( #25, #87 ) ;
#12 = EDGE_LOOP ( 'NONE', ( #207 ) ) ;
#13 = SECURITY_CLASSIFICATION_LEVEL ( 'unclassified' ) ;
#14 = CARTESIAN_POINT ( 'NONE',  ( -1.282749433769087582E-30, 0.0000000000000000000, -3.673940397442059375E-16 ) ) ;
#15 = CC_DESIGN_PERSON_AND_ORGANIZATION_ASSIGNMENT ( #152, #213, ( #155 ) ) ;
#16 = DIRECTION ( 'NONE',  ( 1.000000000000000000, 0.0000000000000000000, 0.0000000000000000000 ) ) ;
#17 =( GEOMETRIC_REPRESENTATION_CONTEXT ( 3 ) GLOBAL_UNCERTAINTY_ASSIGNED_CONTEXT ( ( #119 ) ) GLOBAL_UNIT_ASSIGNED_CONTEXT ( ( #208, #121, #122 ) ) REPRESENTATION_CONTEXT ( 'NONE', 'WORKASPACE' ) );
#18 = EDGE_LOOP ( 'NONE', ( #97 ) ) ;
#19 = VERTEX_POINT ( 'NONE', #76 ) ;
#20 = CIRCLE ( 'NONE', #32, 0.5000000000000004441 ) ;
#21 = DIRECTION ( 'NONE',  ( -3.491481338843133355E-15, 1.224646799147353207E-16, -1.000000000000000000 ) ) ;
#22 = EDGE_CURVE ( 'NONE', #125, #125, #20, .T. ) ;
#23 = CALENDAR_DATE ( 2021, 15, 11 ) ;
#24 = CARTESIAN_POINT ( 'NONE',  ( 3.491481338843129805E-15, 0.0000000000000000000, 0.9999999999999988898 ) ) ;
#25 = CALENDAR_DATE ( 2021, 15, 11 ) ;
#26 = FACE_OUTER_BOUND ( 'NONE', #128, .T. ) ;
#27 = DATE_TIME_ROLE ( 'creation_date' ) ;
#28 = FACE_OUTER_BOUND ( 'NONE', #171, .T. ) ;
#29 = APPROVAL ( #219, 'UNSPECIFIED' ) ;
#30 = DIRECTION ( 'NONE',  ( -3.491481338843133355E-15, 1.224646799147353207E-16, -1.000000000000000000 ) ) ;
#31 = MECHANICAL_CONTEXT ( 'NONE', #61, 'mechanical' ) ;
#32 = AXIS2_PLACEMENT_3D ( 'NONE', #24, #116, #79 ) ;
#33 = ORGANIZATION ( 'UNSPECIFIED', 'UNSPECIFIED', '' ) ;
#34 = CC_DESIGN_PERSON_AND_ORGANIZATION_ASSIGNMENT ( #70, #215, ( #78 ) ) ;
#35 = APPLICATION_CONTEXT ( 'configuration controlled 3d designs of mechanical parts and assemblies' ) ;
#36 = ORIENTED_EDGE ( 'NONE', *, *, #156, .F. ) ;
#37 = CC_DESIGN_PERSON_AND_ORGANIZATION_ASSIGNMENT ( #132, #64, ( #155 ) ) ;
#38 = FACE_OUTER_BOUND ( 'NONE', #46, .T. ) ;
#39 = CARTESIAN_POINT ( 'NONE',  ( 3.491481338843129805E-15, 0.0000000000000000000, 0.9999999999999988898 ) ) ;
#40 = FACE_OUTER_BOUND ( 'NONE', #86, .T. ) ;
#41 = LOCAL_TIME ( 9, 48, 54.00000000000000000, #203 ) ;
#42 = DIRECTION ( 'NONE',  ( 0.0000000000000000000, 1.000000000000000000, 0.0000000000000000000 ) ) ;
#43 = APPROVAL_STATUS ( 'not_yet_approved' ) ;
#44 = CARTESIAN_POINT ( 'NONE',  ( -3.206873584422719393E-31, 1.124819836996393206E-32, -9.184850993605149670E-17 ) ) ;
#45 = DATE_AND_TIME ( #23, #72 ) ;
#46 = EDGE_LOOP ( 'NONE', ( #90 ) ) ;
#47 = DIRECTION ( 'NONE',  ( -4.275831445896958607E-31, -1.000000000000000000, -1.224646799147353207E-16 ) ) ;
#48 = APPROVAL_ROLE ( '' ) ;
#49 = ORIENTED_EDGE ( 'NONE', *, *, #88, .T. ) ;
#50 = DIRECTION ( 'NONE',  ( -1.000000000000000000, 0.0000000000000000000, 3.469446951953614189E-15 ) ) ;
#51 = CONICAL_SURFACE ( 'NONE', #154, 1.499999999999999778, 0.7853981633974453924 ) ;
#52 = EDGE_LOOP ( 'NONE', ( #36 ) ) ;
#53 = CLOSED_SHELL ( 'NONE', ( #136, #176, #89 ) ) ;
#54 = CARTESIAN_POINT ( 'NONE',  ( 0.5000000000000000000, 0.0000000000000000000, -2.113134709165772517E-15 ) ) ;
#55 = CIRCLE ( 'NONE', #153, 1.500000000000000000 ) ;
#56 = APPROVAL_PERSON_ORGANIZATION ( #85, #29, #48 ) ;
#57 = CARTESIAN_POINT ( 'NONE',  ( 1.326762908760390423E-13, 8.998558695971077224E-33, 38.00000000000000000 ) ) ;
#58 = DIRECTION ( 'NONE',  ( 3.491481338843133355E-15, -0.0000000000000000000, 1.000000000000000000 ) ) ;
#59 = ADVANCED_BREP_SHAPE_REPRESENTATION ( '977786', ( #161, #165, #10 ), #17 ) ;
#60 = DIRECTION ( 'NONE',  ( 3.491481338843133355E-15, -1.224646799147353207E-16, 1.000000000000000000 ) ) ;
#61 = APPLICATION_CONTEXT ( 'configuration controlled 3d designs of mechanical parts and assemblies' ) ;
#62 = CIRCLE ( 'NONE', #188, 0.5000000000000004441 ) ;
#63 = FACE_OUTER_BOUND ( 'NONE', #202, .T. ) ;
#64 = PERSON_AND_ORGANIZATION_ROLE ( 'design_supplier' ) ;
#65 = CARTESIAN_POINT ( 'NONE',  ( 1.701393041777655834E-14, 0.0000000000000000000, 4.872983346207415245 ) ) ;
#66 = CARTESIAN_POINT ( 'NONE',  ( 1.326762908760390423E-13, -4.653657836759941941E-15, 38.00000000000000000 ) ) ;
#67 = APPROVAL_STATUS ( 'not_yet_approved' ) ;
#68 = AXIS2_PLACEMENT_3D ( 'NONE', #183, #95, #110 ) ;
#69 = SECURITY_CLASSIFICATION ( '', '', #13 ) ;
#70 = PERSON_AND_ORGANIZATION ( #2, #33 ) ;
#71 = EDGE_CURVE ( 'NONE', #109, #109, #178, .T. ) ;
#72 = LOCAL_TIME ( 9, 48, 54.00000000000000000, #164 ) ;
#73 = CC_DESIGN_PERSON_AND_ORGANIZATION_ASSIGNMENT ( #198, #83, ( #134 ) ) ;
#74 = VERTEX_POINT ( 'NONE', #3 ) ;
#75 = ADVANCED_FACE ( 'NONE', ( #151, #214 ), #201, .T. ) ;
#76 = CARTESIAN_POINT ( 'NONE',  ( 0.5000000000000038858, 0.0000000000000000000, 0.9999999999999972244 ) ) ;
#77 = DIRECTION ( 'NONE',  ( 3.491481338843133355E-15, -0.0000000000000000000, 1.000000000000000000 ) ) ;
#78 = PRODUCT ( '977786', '977786', '', ( #31 ) ) ;
#79 = DIRECTION ( 'NONE',  ( 1.000000000000000000, 0.0000000000000000000, -3.469446951953611033E-15 ) ) ;
#80 = APPROVAL_ROLE ( '' ) ;
#81 = AXIS2_PLACEMENT_3D ( 'NONE', #82, #126, #147 ) ;
#82 = CARTESIAN_POINT ( 'NONE',  ( 0.0000000000000000000, 0.0000000000000000000, 0.0000000000000000000 ) ) ;
#83 = PERSON_AND_ORGANIZATION_ROLE ( 'creator' ) ;
#84 = DIRECTION ( 'NONE',  ( 0.0000000000000000000, 1.000000000000000000, 0.0000000000000000000 ) ) ;
#85 = PERSON_AND_ORGANIZATION ( #2, #33 ) ;
#86 = EDGE_LOOP ( 'NONE', ( #166 ) ) ;
#87 = LOCAL_TIME ( 9, 48, 54.00000000000000000, #148 ) ;
#88 = EDGE_CURVE ( 'NONE', #142, #142, #103, .T. ) ;
#89 = ADVANCED_FACE ( 'NONE', ( #28 ), #101, .T. ) ;
#90 = ORIENTED_EDGE ( 'NONE', *, *, #187, .F. ) ;
#91 = APPROVAL ( #43, 'UNSPECIFIED' ) ;
#92 = VERTEX_POINT ( 'NONE', #140 ) ;
#93 = CC_DESIGN_SECURITY_CLASSIFICATION ( #69, ( #155 ) ) ;
#94 = DIRECTION ( 'NONE',  ( 0.0000000000000000000, 1.000000000000000000, 0.0000000000000000000 ) ) ;
#95 = DIRECTION ( 'NONE',  ( -3.491481338843133355E-15, 1.224646799147353207E-16, -1.000000000000000000 ) ) ;
#96 = DATE_AND_TIME ( #111, #41 ) ;
#97 = ORIENTED_EDGE ( 'NONE', *, *, #143, .F. ) ;
#98 = CALENDAR_DATE ( 2021, 15, 11 ) ;
#99 = AXIS2_PLACEMENT_3D ( 'NONE', #112, #186, #47 ) ;
#100 = DIRECTION ( 'NONE',  ( -4.275831445896958607E-31, -1.000000000000000000, -1.224646799147353207E-16 ) ) ;
#101 = PLANE ( 'NONE',  #4 ) ;
#102 = APPROVAL_DATE_TIME ( #96, #91 ) ;
#103 = CIRCLE ( 'NONE', #158, 1.499999999999999778 ) ;
#104 = AXIS2_PLACEMENT_3D ( 'NONE', #14, #77, #131 ) ;
#105 = ORIENTED_EDGE ( 'NONE', *, *, #143, .T. ) ;
#106 = APPROVAL ( #67, 'UNSPECIFIED' ) ;
#107 = DIRECTION ( 'NONE',  ( 4.275831445896958607E-31, 1.000000000000000000, 1.224646799147353207E-16 ) ) ;
#108 = CARTESIAN_POINT ( 'NONE',  ( 0.5000000000000038858, 0.0000000000000000000, 0.9999999999999972244 ) ) ;
#109 = VERTEX_POINT ( 'NONE', #54 ) ;
#110 = DIRECTION ( 'NONE',  ( 4.275831445896959482E-31, 1.000000000000000000, 1.224646799147353207E-16 ) ) ;
#111 = CALENDAR_DATE ( 2021, 15, 11 ) ;
#112 = CARTESIAN_POINT ( 'NONE',  ( 3.491481338843133355E-15, -1.445602896647339163E-16, 1.000000000000000000 ) ) ;
#113 = CALENDAR_DATE ( 2021, 15, 11 ) ;
#114 = ORIENTED_EDGE ( 'NONE', *, *, #71, .F. ) ;
#115 = APPROVAL_ROLE ( '' ) ;
#116 = DIRECTION ( 'NONE',  ( 3.491481338843133355E-15, -0.0000000000000000000, 1.000000000000000000 ) ) ;
#117 = SHAPE_DEFINITION_REPRESENTATION ( #221, #59 ) ;
#118 = CC_DESIGN_APPROVAL ( #106, ( #155 ) ) ;
#119 = UNCERTAINTY_MEASURE_WITH_UNIT (LENGTH_MEASURE( 1.000000000000000082E-05 ), #208, 'distance_accuracy_value', 'NONE');
#120 = EDGE_LOOP ( 'NONE', ( #105 ) ) ;
#121 =( NAMED_UNIT ( * ) PLANE_ANGLE_UNIT ( ) SI_UNIT ( $, .RADIAN. ) );
#122 =( NAMED_UNIT ( * ) SI_UNIT ( $, .STERADIAN. ) SOLID_ANGLE_UNIT ( ) );
#123 = DIRECTION ( 'NONE',  ( -3.491481338843133355E-15, 1.224646799147353207E-16, -1.000000000000000000 ) ) ;
#124 = CARTESIAN_POINT ( 'NONE',  ( 1.316288464743861212E-13, -4.616918432785521081E-15, 37.69999999999999574 ) ) ;
#125 = VERTEX_POINT ( 'NONE', #108 ) ;
#126 = DIRECTION ( 'NONE',  ( 3.491481338843133355E-15, -0.0000000000000000000, 1.000000000000000000 ) ) ;
#127 = DATE_AND_TIME ( #113, #210 ) ;
#128 = EDGE_LOOP ( 'NONE', ( #189 ) ) ;
#129 = COORDINATED_UNIVERSAL_TIME_OFFSET ( 1, 0, .AHEAD. ) ;
#130 = ORIENTED_EDGE ( 'NONE', *, *, #71, .T. ) ;
#131 = DIRECTION ( 'NONE',  ( 1.000000000000000000, 0.0000000000000000000, -3.491481338843133355E-15 ) ) ;
#132 = PERSON_AND_ORGANIZATION ( #2, #33 ) ;
#133 = AXIS2_PLACEMENT_3D ( 'NONE', #66, #30, #42 ) ;
#134 = PRODUCT_DEFINITION ( 'UNKNOWN', '', #155, #137 ) ;
#135 = APPLICATION_PROTOCOL_DEFINITION ( 'international standard', 'config_control_design', 1994, #35 ) ;
#136 = ADVANCED_FACE ( 'NONE', ( #144 ), #216, .T. ) ;
#137 = DESIGN_CONTEXT ( 'detailed design', #35, 'design' ) ;
#138 = ORIENTED_EDGE ( 'NONE', *, *, #22, .F. ) ;
#139 = PRODUCT_RELATED_PRODUCT_CATEGORY ( 'detail', '', ( #78 ) ) ;
#140 = CARTESIAN_POINT ( 'NONE',  ( 1.326762908760390423E-13, 1.199999999999995293, 38.00000000000000000 ) ) ;
#141 = ADVANCED_FACE ( 'NONE', ( #63 ), #199, .F. ) ;
#142 = VERTEX_POINT ( 'NONE', #223 ) ;
#143 = EDGE_CURVE ( 'NONE', #92, #92, #222, .T. ) ;
#144 = FACE_OUTER_BOUND ( 'NONE', #157, .T. ) ;
#145 = DIRECTION ( 'NONE',  ( -3.491481338843133355E-15, 1.224646799147353207E-16, -1.000000000000000000 ) ) ;
#146 = DATE_AND_TIME ( #98, #1 ) ;
#147 = DIRECTION ( 'NONE',  ( 1.000000000000000000, 0.0000000000000000000, -3.491481338843133355E-15 ) ) ;
#148 = COORDINATED_UNIVERSAL_TIME_OFFSET ( 1, 0, .AHEAD. ) ;
#149 = DIRECTION ( 'NONE',  ( 4.275831445896958607E-31, 1.000000000000000000, 1.224646799147353207E-16 ) ) ;
#150 = DIRECTION ( 'NONE',  ( 0.0000000000000000000, 0.0000000000000000000, 1.000000000000000000 ) ) ;
#151 = FACE_OUTER_BOUND ( 'NONE', #7, .T. ) ;
#152 = PERSON_AND_ORGANIZATION ( #2, #33 ) ;
#153 = AXIS2_PLACEMENT_3D ( 'NONE', #65, #196, #50 ) ;
#154 = AXIS2_PLACEMENT_3D ( 'NONE', #179, #21, #94 ) ;
#155 = PRODUCT_DEFINITION_FORMATION_WITH_SPECIFIED_SOURCE ( 'ANY', '', #78, .NOT_KNOWN. ) ;
#156 = EDGE_CURVE ( 'NONE', #19, #19, #62, .T. ) ;
#157 = EDGE_LOOP ( 'NONE', ( #204 ) ) ;
#158 = AXIS2_PLACEMENT_3D ( 'NONE', #124, #145, #84 ) ;
#159 = APPROVAL_PERSON_ORGANIZATION ( #167, #106, #80 ) ;
#160 = CARTESIAN_POINT ( 'NONE',  ( 0.0000000000000000000, 0.0000000000000000000, 0.0000000000000000000 ) ) ;
#161 = MANIFOLD_SOLID_BREP ( 'Corps-Déplacer/Copier1[1]', #195 ) ;
#162 = CYLINDRICAL_SURFACE ( 'NONE', #81, 0.5000000000000002220 ) ;
#163 = FACE_OUTER_BOUND ( 'NONE', #5, .T. ) ;
#164 = COORDINATED_UNIVERSAL_TIME_OFFSET ( 1, 0, .AHEAD. ) ;
#165 = MANIFOLD_SOLID_BREP ( 'Corps-Déplacer/Copier1[2]', #53 ) ;
#166 = ORIENTED_EDGE ( 'NONE', *, *, #22, .T. ) ;
#167 = PERSON_AND_ORGANIZATION ( #2, #33 ) ;
#168 = DIRECTION ( 'NONE',  ( 1.000000000000000000, 0.0000000000000000000, -3.469446951953611033E-15 ) ) ;
#169 = CC_DESIGN_APPROVAL ( #91, ( #134 ) ) ;
#170 = APPROVAL_PERSON_ORGANIZATION ( #8, #91, #115 ) ;
#171 = EDGE_LOOP ( 'NONE', ( #114 ) ) ;
#172 = ADVANCED_FACE ( 'NONE', ( #181, #26 ), #51, .T. ) ;
#173 = AXIS2_PLACEMENT_3D ( 'NONE', #57, #123, #107 ) ;
#174 = CARTESIAN_POINT ( 'NONE',  ( 3.491481338843133355E-15, 0.0000000000000000000, 1.000000000000000000 ) ) ;
#175 = PLANE ( 'NONE',  #173 ) ;
#176 = ADVANCED_FACE ( 'NONE', ( #163, #9 ), #162, .T. ) ;
#177 = DIRECTION ( 'NONE',  ( 1.000000000000000000, 0.0000000000000000000, -3.491481338843133355E-15 ) ) ;
#178 = CIRCLE ( 'NONE', #104, 0.5000000000000000000 ) ;
#179 = CARTESIAN_POINT ( 'NONE',  ( 1.316288464743861212E-13, -4.616918432785521081E-15, 37.69999999999999574 ) ) ;
#180 = APPROVAL_DATE_TIME ( #45, #106 ) ;
#181 = FACE_BOUND ( 'NONE', #120, .T. ) ;
#182 = PERSON_AND_ORGANIZATION_ROLE ( 'classification_officer' ) ;
#183 = CARTESIAN_POINT ( 'NONE',  ( 0.0000000000000000000, 0.0000000000000000000, 0.0000000000000000000 ) ) ;
#184 = TOROIDAL_SURFACE ( 'NONE', #206, 8.500000000000000000, 8.000000000000000000 ) ;
#185 = COORDINATED_UNIVERSAL_TIME_OFFSET ( 1, 0, .AHEAD. ) ;
#186 = DIRECTION ( 'NONE',  ( 3.491481338843133355E-15, -1.224646799147353207E-16, 1.000000000000000000 ) ) ;
#187 = EDGE_CURVE ( 'NONE', #74, #74, #55, .T. ) ;
#188 = AXIS2_PLACEMENT_3D ( 'NONE', #39, #58, #168 ) ;
#189 = ORIENTED_EDGE ( 'NONE', *, *, #88, .F. ) ;
#190 = ADVANCED_FACE ( 'NONE', ( #191 ), #175, .F. ) ;
#191 = FACE_OUTER_BOUND ( 'NONE', #18, .T. ) ;
#192 = APPLICATION_PROTOCOL_DEFINITION ( 'international standard', 'config_control_design', 1994, #61 ) ;
#193 = CC_DESIGN_DATE_AND_TIME_ASSIGNMENT ( #146, #27, ( #134 ) ) ;
#194 = DIRECTION ( 'NONE',  ( -3.491481338843133355E-15, 1.224646799147353207E-16, -1.000000000000000000 ) ) ;
#195 = CLOSED_SHELL ( 'NONE', ( #75, #172, #190, #218, #141 ) ) ;
#196 = DIRECTION ( 'NONE',  ( 3.491481338843133355E-15, -0.0000000000000000000, 1.000000000000000000 ) ) ;
#197 = CC_DESIGN_APPROVAL ( #29, ( #69 ) ) ;
#198 = PERSON_AND_ORGANIZATION ( #2, #33 ) ;
#199 = PLANE ( 'NONE',  #99 ) ;
#200 = DATE_TIME_ROLE ( 'classification_date' ) ;
#201 = CYLINDRICAL_SURFACE ( 'NONE', #68, 1.500000000000000000 ) ;
#202 = EDGE_LOOP ( 'NONE', ( #138 ) ) ;
#203 = COORDINATED_UNIVERSAL_TIME_OFFSET ( 1, 0, .AHEAD. ) ;
#204 = ORIENTED_EDGE ( 'NONE', *, *, #156, .T. ) ;
#205 = AXIS2_PLACEMENT_3D ( 'NONE', #212, #60, #100 ) ;
#206 = AXIS2_PLACEMENT_3D ( 'NONE', #174, #209, #177 ) ;
#207 = ORIENTED_EDGE ( 'NONE', *, *, #187, .T. ) ;
#208 =( LENGTH_UNIT ( ) NAMED_UNIT ( * ) SI_UNIT ( .MILLI., .METRE. ) );
#209 = DIRECTION ( 'NONE',  ( 3.491481338843133355E-15, -0.0000000000000000000, 1.000000000000000000 ) ) ;
#210 = LOCAL_TIME ( 9, 48, 54.00000000000000000, #129 ) ;
#211 = CC_DESIGN_DATE_AND_TIME_ASSIGNMENT ( #127, #200, ( #69 ) ) ;
#212 = CARTESIAN_POINT ( 'NONE',  ( 3.491481338843133355E-15, -1.445602896647339163E-16, 1.000000000000000000 ) ) ;
#213 = PERSON_AND_ORGANIZATION_ROLE ( 'creator' ) ;
#214 = FACE_OUTER_BOUND ( 'NONE', #12, .T. ) ;
#215 = PERSON_AND_ORGANIZATION_ROLE ( 'design_owner' ) ;
#216 = PLANE ( 'NONE',  #205 ) ;
#217 = PERSON_AND_ORGANIZATION ( #2, #33 ) ;
#218 = ADVANCED_FACE ( 'NONE', ( #38, #40 ), #184, .F. ) ;
#219 = APPROVAL_STATUS ( 'not_yet_approved' ) ;
#220 = CC_DESIGN_PERSON_AND_ORGANIZATION_ASSIGNMENT ( #217, #182, ( #69 ) ) ;
#221 = PRODUCT_DEFINITION_SHAPE ( 'NONE', 'NONE',  #134 ) ;
#222 = CIRCLE ( 'NONE', #133, 1.199999999999999956 ) ;
#223 = CARTESIAN_POINT ( 'NONE',  ( 1.316288464743861212E-13, 1.499999999999995337, 37.69999999999999574 ) ) ;
ENDSEC;
END-ISO-10303-21;
