ISO-10303-21;
HEADER;
FILE_DESCRIPTION (( 'STEP AP203' ),
    '1' );
FILE_NAME ('977785.step',
    '2021-11-15T08:48:53',
    ( '' ),
    ( '' ),
    'SwSTEP 2.0',
    'SolidWorks 2019',
    '' );
FILE_SCHEMA (( 'CONFIG_CONTROL_DESIGN' ));
ENDSEC;

DATA;
#1 = ADVANCED_FACE ( 'NONE', ( #205 ), #30, .T. ) ;
#2 = MANIFOLD_SOLID_BREP ( 'Corps-Déplacer/Copier1[1]', #36 ) ;
#3 = DIRECTION ( 'NONE',  ( -4.275831445896958607E-31, -1.000000000000000000, -1.224646799147353207E-16 ) ) ;
#4 = DIRECTION ( 'NONE',  ( 3.491481338843133355E-15, -0.0000000000000000000, 1.000000000000000000 ) ) ;
#5 = DIRECTION ( 'NONE',  ( 4.275831445896959482E-31, 1.000000000000000000, 1.224646799147353207E-16 ) ) ;
#6 = CC_DESIGN_PERSON_AND_ORGANIZATION_ASSIGNMENT ( #49, #95, ( #100 ) ) ;
#7 = CARTESIAN_POINT ( 'NONE',  ( 0.4500000000000038969, 0.0000000000000000000, 0.8999999999999974687 ) ) ;
#8 = DIRECTION ( 'NONE',  ( 3.491481338843133355E-15, -1.224646799147353207E-16, 1.000000000000000000 ) ) ;
#9 = AXIS2_PLACEMENT_3D ( 'NONE', #43, #107, #29 ) ;
#10 = FACE_OUTER_BOUND ( 'NONE', #219, .T. ) ;
#11 = EDGE_LOOP ( 'NONE', ( #72 ) ) ;
#12 = ORIENTED_EDGE ( 'NONE', *, *, #166, .F. ) ;
#13 = MECHANICAL_CONTEXT ( 'NONE', #59, 'mechanical' ) ;
#14 = SHAPE_DEFINITION_REPRESENTATION ( #17, #220 ) ;
#15 = APPROVAL_PERSON_ORGANIZATION ( #130, #146, #128 ) ;
#16 = PERSON_AND_ORGANIZATION ( #21, #46 ) ;
#17 = PRODUCT_DEFINITION_SHAPE ( 'NONE', 'NONE',  #207 ) ;
#18 = PERSON_AND_ORGANIZATION_ROLE ( 'creator' ) ;
#19 = CONICAL_SURFACE ( 'NONE', #85, 1.499999999999999778, 0.7853981633974453924 ) ;
#20 = UNCERTAINTY_MEASURE_WITH_UNIT (LENGTH_MEASURE( 1.000000000000000082E-05 ), #122, 'distance_accuracy_value', 'NONE');
#21 = PERSON ( 'UNSPECIFIED', 'UNSPECIFIED', 'UNSPECIFIED', ('UNSPECIFIED'), ('UNSPECIFIED'), ('UNSPECIFIED') ) ;
#22 = PRODUCT ( '977785', '977785', '', ( #13 ) ) ;
#23 = DIRECTION ( 'NONE',  ( 3.491481338843133355E-15, -0.0000000000000000000, 1.000000000000000000 ) ) ;
#24 = DIRECTION ( 'NONE',  ( 3.491481338843133355E-15, -0.0000000000000000000, 1.000000000000000000 ) ) ;
#25 = DIRECTION ( 'NONE',  ( 0.0000000000000000000, 1.000000000000000000, 0.0000000000000000000 ) ) ;
#26 = DIRECTION ( 'NONE',  ( 1.000000000000000000, 0.0000000000000000000, -3.491481338843133355E-15 ) ) ;
#27 = CARTESIAN_POINT ( 'NONE',  ( 1.326762908760390423E-13, -4.653657836759941941E-15, 38.00000000000000000 ) ) ;
#28 = DIRECTION ( 'NONE',  ( 3.491481338843133355E-15, -0.0000000000000000000, 1.000000000000000000 ) ) ;
#29 = DIRECTION ( 'NONE',  ( 0.0000000000000000000, 1.000000000000000000, 0.0000000000000000000 ) ) ;
#30 = PLANE ( 'NONE',  #57 ) ;
#31 = AXIS2_PLACEMENT_3D ( 'NONE', #154, #176, #3 ) ;
#32 = DATE_TIME_ROLE ( 'creation_date' ) ;
#33 = DATE_AND_TIME ( #168, #60 ) ;
#34 = CALENDAR_DATE ( 2021, 15, 11 ) ;
#35 = CARTESIAN_POINT ( 'NONE',  ( 0.0000000000000000000, 0.0000000000000000000, 0.0000000000000000000 ) ) ;
#36 = CLOSED_SHELL ( 'NONE', ( #181, #44, #120, #174, #113 ) ) ;
#37 = APPROVAL ( #78, 'UNSPECIFIED' ) ;
#38 = CC_DESIGN_SECURITY_CLASSIFICATION ( #100, ( #54 ) ) ;
#39 = DIRECTION ( 'NONE',  ( 4.275831445896958607E-31, 1.000000000000000000, 1.224646799147353207E-16 ) ) ;
#40 =( NAMED_UNIT ( * ) PLANE_ANGLE_UNIT ( ) SI_UNIT ( $, .RADIAN. ) );
#41 =( NAMED_UNIT ( * ) SI_UNIT ( $, .STERADIAN. ) SOLID_ANGLE_UNIT ( ) );
#42 = CARTESIAN_POINT ( 'NONE',  ( 1.316288464743861212E-13, -4.616918432785521081E-15, 37.69999999999999574 ) ) ;
#43 = CARTESIAN_POINT ( 'NONE',  ( 1.316288464743861212E-13, -4.616918432785521081E-15, 37.69999999999999574 ) ) ;
#44 = ADVANCED_FACE ( 'NONE', ( #183, #172 ), #19, .T. ) ;
#45 = ORIENTED_EDGE ( 'NONE', *, *, #197, .F. ) ;
#46 = ORGANIZATION ( 'UNSPECIFIED', 'UNSPECIFIED', '' ) ;
#47 = EDGE_CURVE ( 'NONE', #141, #141, #214, .T. ) ;
#48 = AXIS2_PLACEMENT_3D ( 'NONE', #53, #51, #157 ) ;
#49 = PERSON_AND_ORGANIZATION ( #21, #46 ) ;
#50 = DIRECTION ( 'NONE',  ( 0.0000000000000000000, 0.0000000000000000000, 1.000000000000000000 ) ) ;
#51 = DIRECTION ( 'NONE',  ( 3.491481338843133355E-15, -0.0000000000000000000, 1.000000000000000000 ) ) ;
#52 = AXIS2_PLACEMENT_3D ( 'NONE', #193, #23, #155 ) ;
#53 = CARTESIAN_POINT ( 'NONE',  ( 0.0000000000000000000, 0.0000000000000000000, 0.0000000000000000000 ) ) ;
#54 = PRODUCT_DEFINITION_FORMATION_WITH_SPECIFIED_SOURCE ( 'ANY', '', #22, .NOT_KNOWN. ) ;
#55 = CARTESIAN_POINT ( 'NONE',  ( -1.499999999999983125, 0.0000000000000000000, 4.862007067131508542 ) ) ;
#56 = APPROVAL_ROLE ( '' ) ;
#57 = AXIS2_PLACEMENT_3D ( 'NONE', #163, #216, #110 ) ;
#58 = CC_DESIGN_DATE_AND_TIME_ASSIGNMENT ( #114, #148, ( #100 ) ) ;
#59 = APPLICATION_CONTEXT ( 'configuration controlled 3d designs of mechanical parts and assemblies' ) ;
#60 = LOCAL_TIME ( 9, 48, 53.00000000000000000, #77 ) ;
#61 = EDGE_LOOP ( 'NONE', ( #97 ) ) ;
#62 = ORIENTED_EDGE ( 'NONE', *, *, #166, .T. ) ;
#63 = ADVANCED_FACE ( 'NONE', ( #109, #123 ), #106, .T. ) ;
#64 = AXIS2_PLACEMENT_3D ( 'NONE', #35, #50, #179 ) ;
#65 = DIRECTION ( 'NONE',  ( -3.491481338843133355E-15, 1.224646799147353207E-16, -1.000000000000000000 ) ) ;
#66 = FACE_OUTER_BOUND ( 'NONE', #223, .T. ) ;
#67 = DIRECTION ( 'NONE',  ( -1.000000000000000000, 0.0000000000000000000, 3.469446951953614189E-15 ) ) ;
#68 = AXIS2_PLACEMENT_3D ( 'NONE', #180, #28, #138 ) ;
#69 = APPLICATION_CONTEXT ( 'configuration controlled 3d designs of mechanical parts and assemblies' ) ;
#70 = DIRECTION ( 'NONE',  ( -4.275831445896958607E-31, -1.000000000000000000, -1.224646799147353207E-16 ) ) ;
#71 = EDGE_CURVE ( 'NONE', #195, #195, #73, .T. ) ;
#72 = ORIENTED_EDGE ( 'NONE', *, *, #47, .F. ) ;
#73 = CIRCLE ( 'NONE', #101, 1.500000000000000000 ) ;
#74 = APPROVAL_ROLE ( '' ) ;
#75 = EDGE_LOOP ( 'NONE', ( #132 ) ) ;
#76 = DATE_AND_TIME ( #34, #98 ) ;
#77 = COORDINATED_UNIVERSAL_TIME_OFFSET ( 1, 0, .AHEAD. ) ;
#78 = APPROVAL_STATUS ( 'not_yet_approved' ) ;
#79 = EDGE_LOOP ( 'NONE', ( #62 ) ) ;
#80 = PERSON_AND_ORGANIZATION_ROLE ( 'design_supplier' ) ;
#81 = CIRCLE ( 'NONE', #52, 0.4500000000000007327 ) ;
#82 = ORIENTED_EDGE ( 'NONE', *, *, #71, .F. ) ;
#83 = EDGE_CURVE ( 'NONE', #124, #124, #136, .T. ) ;
#84 = LOCAL_TIME ( 9, 48, 53.00000000000000000, #199 ) ;
#85 = AXIS2_PLACEMENT_3D ( 'NONE', #42, #162, #89 ) ;
#86 = CARTESIAN_POINT ( 'NONE',  ( -1.282749433769087582E-30, 0.0000000000000000000, -3.673940397442059375E-16 ) ) ;
#87 = FACE_OUTER_BOUND ( 'NONE', #131, .T. ) ;
#88 = APPLICATION_PROTOCOL_DEFINITION ( 'international standard', 'config_control_design', 1994, #69 ) ;
#89 = DIRECTION ( 'NONE',  ( 0.0000000000000000000, 1.000000000000000000, 0.0000000000000000000 ) ) ;
#90 = CARTESIAN_POINT ( 'NONE',  ( 1.316288464743861212E-13, 1.499999999999995337, 37.69999999999999574 ) ) ;
#91 = PLANE ( 'NONE',  #192 ) ;
#92 = ORIENTED_EDGE ( 'NONE', *, *, #71, .T. ) ;
#93 = CIRCLE ( 'NONE', #222, 0.4499999999999999001 ) ;
#94 = APPROVAL_STATUS ( 'not_yet_approved' ) ;
#95 = PERSON_AND_ORGANIZATION_ROLE ( 'classification_officer' ) ;
#96 = CALENDAR_DATE ( 2021, 15, 11 ) ;
#97 = ORIENTED_EDGE ( 'NONE', *, *, #83, .F. ) ;
#98 = LOCAL_TIME ( 9, 48, 53.00000000000000000, #115 ) ;
#99 = AXIS2_PLACEMENT_3D ( 'NONE', #116, #65, #39 ) ;
#100 = SECURITY_CLASSIFICATION ( '', '', #200 ) ;
#101 = AXIS2_PLACEMENT_3D ( 'NONE', #140, #4, #67 ) ;
#102 = CC_DESIGN_PERSON_AND_ORGANIZATION_ASSIGNMENT ( #16, #18, ( #207 ) ) ;
#103 = CARTESIAN_POINT ( 'NONE',  ( 3.142333204958820020E-15, 0.0000000000000000000, 0.9000000000000000222 ) ) ;
#104 = FACE_OUTER_BOUND ( 'NONE', #188, .T. ) ;
#105 = PERSON_AND_ORGANIZATION ( #21, #46 ) ;
#106 = CYLINDRICAL_SURFACE ( 'NONE', #48, 0.4500000000000002887 ) ;
#107 = DIRECTION ( 'NONE',  ( -3.491481338843133355E-15, 1.224646799147353207E-16, -1.000000000000000000 ) ) ;
#108 = PERSON_AND_ORGANIZATION ( #21, #46 ) ;
#109 = FACE_OUTER_BOUND ( 'NONE', #79, .T. ) ;
#110 = DIRECTION ( 'NONE',  ( 4.275831445896958607E-31, 1.000000000000000000, 1.224646799147353207E-16 ) ) ;
#111 = CC_DESIGN_APPROVAL ( #146, ( #54 ) ) ;
#112 = AXIS2_PLACEMENT_3D ( 'NONE', #144, #158, #5 ) ;
#113 = ADVANCED_FACE ( 'NONE', ( #104 ), #91, .F. ) ;
#114 = DATE_AND_TIME ( #165, #84 ) ;
#115 = COORDINATED_UNIVERSAL_TIME_OFFSET ( 1, 0, .AHEAD. ) ;
#116 = CARTESIAN_POINT ( 'NONE',  ( 1.326762908760390423E-13, 8.998558695971077224E-33, 38.00000000000000000 ) ) ;
#117 = APPROVAL_DATE_TIME ( #203, #221 ) ;
#118 = TOROIDAL_SURFACE ( 'NONE', #173, 8.450000000000001066, 8.000000000000000000 ) ;
#119 = COORDINATED_UNIVERSAL_TIME_OFFSET ( 1, 0, .AHEAD. ) ;
#120 = ADVANCED_FACE ( 'NONE', ( #191 ), #206, .F. ) ;
#121 = FACE_OUTER_BOUND ( 'NONE', #164, .T. ) ;
#122 =( LENGTH_UNIT ( ) NAMED_UNIT ( * ) SI_UNIT ( .MILLI., .METRE. ) );
#123 = FACE_OUTER_BOUND ( 'NONE', #169, .T. ) ;
#124 = VERTEX_POINT ( 'NONE', #90 ) ;
#125 = CC_DESIGN_PERSON_AND_ORGANIZATION_ASSIGNMENT ( #127, #147, ( #54 ) ) ;
#126 = APPROVAL_DATE_TIME ( #76, #37 ) ;
#127 = PERSON_AND_ORGANIZATION ( #21, #46 ) ;
#128 = APPROVAL_ROLE ( '' ) ;
#129 = APPROVAL_PERSON_ORGANIZATION ( #187, #37, #56 ) ;
#130 = PERSON_AND_ORGANIZATION ( #21, #46 ) ;
#131 = EDGE_LOOP ( 'NONE', ( #149 ) ) ;
#132 = ORIENTED_EDGE ( 'NONE', *, *, #47, .T. ) ;
#133 = CC_DESIGN_PERSON_AND_ORGANIZATION_ASSIGNMENT ( #202, #80, ( #54 ) ) ;
#134 = DIRECTION ( 'NONE',  ( 1.000000000000000000, 0.0000000000000000000, -3.491481338843132961E-15 ) ) ;
#135 = FACE_OUTER_BOUND ( 'NONE', #142, .T. ) ;
#136 = CIRCLE ( 'NONE', #9, 1.499999999999999778 ) ;
#137 = PRODUCT_RELATED_PRODUCT_CATEGORY ( 'detail', '', ( #22 ) ) ;
#138 = DIRECTION ( 'NONE',  ( 1.000000000000000000, 0.0000000000000000000, -3.373073425510452936E-15 ) ) ;
#139 = CARTESIAN_POINT ( 'NONE',  ( 0.4499999999999999001, 0.0000000000000000000, -1.938560642223615454E-15 ) ) ;
#140 = CARTESIAN_POINT ( 'NONE',  ( 1.697560694421307842E-14, 0.0000000000000000000, 4.862007067131503213 ) ) ;
#141 = VERTEX_POINT ( 'NONE', #215 ) ;
#142 = EDGE_LOOP ( 'NONE', ( #217 ) ) ;
#143 = ADVANCED_FACE ( 'NONE', ( #87 ), #153, .T. ) ;
#144 = CARTESIAN_POINT ( 'NONE',  ( 0.0000000000000000000, 0.0000000000000000000, 0.0000000000000000000 ) ) ;
#145 = EDGE_LOOP ( 'NONE', ( #12 ) ) ;
#146 = APPROVAL ( #94, 'UNSPECIFIED' ) ;
#147 = PERSON_AND_ORGANIZATION_ROLE ( 'creator' ) ;
#148 = DATE_TIME_ROLE ( 'classification_date' ) ;
#149 = ORIENTED_EDGE ( 'NONE', *, *, #152, .T. ) ;
#150 = MANIFOLD_SOLID_BREP ( 'Corps-Déplacer/Copier1[2]', #156 ) ;
#151 = DESIGN_CONTEXT ( 'detailed design', #69, 'design' ) ;
#152 = EDGE_CURVE ( 'NONE', #159, #159, #81, .T. ) ;
#153 = PLANE ( 'NONE',  #31 ) ;
#154 = CARTESIAN_POINT ( 'NONE',  ( 3.142333204958819231E-15, -1.301042606982604828E-16, 0.8999999999999998002 ) ) ;
#155 = DIRECTION ( 'NONE',  ( 1.000000000000000000, 0.0000000000000000000, -3.373073425510452936E-15 ) ) ;
#156 = CLOSED_SHELL ( 'NONE', ( #143, #63, #1 ) ) ;
#157 = DIRECTION ( 'NONE',  ( 1.000000000000000000, 0.0000000000000000000, -3.491481338843133750E-15 ) ) ;
#158 = DIRECTION ( 'NONE',  ( -3.491481338843133355E-15, 1.224646799147353207E-16, -1.000000000000000000 ) ) ;
#159 = VERTEX_POINT ( 'NONE', #7 ) ;
#160 = CARTESIAN_POINT ( 'NONE',  ( 3.142333204958819231E-15, -1.301042606982604828E-16, 0.8999999999999998002 ) ) ;
#161 = APPROVAL_STATUS ( 'not_yet_approved' ) ;
#162 = DIRECTION ( 'NONE',  ( -3.491481338843133355E-15, 1.224646799147353207E-16, -1.000000000000000000 ) ) ;
#163 = CARTESIAN_POINT ( 'NONE',  ( -3.206873584422719393E-31, 1.124819836996393206E-32, -9.184850993605149670E-17 ) ) ;
#164 = EDGE_LOOP ( 'NONE', ( #92 ) ) ;
#165 = CALENDAR_DATE ( 2021, 15, 11 ) ;
#166 = EDGE_CURVE ( 'NONE', #211, #211, #93, .T. ) ;
#167 = APPROVAL_DATE_TIME ( #218, #146 ) ;
#168 = CALENDAR_DATE ( 2021, 15, 11 ) ;
#169 = EDGE_LOOP ( 'NONE', ( #204 ) ) ;
#170 = COORDINATED_UNIVERSAL_TIME_OFFSET ( 1, 0, .AHEAD. ) ;
#171 = CC_DESIGN_DATE_AND_TIME_ASSIGNMENT ( #33, #32, ( #207 ) ) ;
#172 = FACE_OUTER_BOUND ( 'NONE', #61, .T. ) ;
#173 = AXIS2_PLACEMENT_3D ( 'NONE', #103, #24, #26 ) ;
#174 = ADVANCED_FACE ( 'NONE', ( #66, #135 ), #118, .F. ) ;
#175 = LOCAL_TIME ( 9, 48, 53.00000000000000000, #170 ) ;
#176 = DIRECTION ( 'NONE',  ( 3.491481338843133355E-15, -1.224646799147353207E-16, 1.000000000000000000 ) ) ;
#177 = DIRECTION ( 'NONE',  ( 3.491481338843133355E-15, -0.0000000000000000000, 1.000000000000000000 ) ) ;
#178 = CARTESIAN_POINT ( 'NONE',  ( 0.4500000000000038969, 0.0000000000000000000, 0.8999999999999974687 ) ) ;
#179 = DIRECTION ( 'NONE',  ( 1.000000000000000000, 0.0000000000000000000, 0.0000000000000000000 ) ) ;
#180 = CARTESIAN_POINT ( 'NONE',  ( 3.142333204958816470E-15, 0.0000000000000000000, 0.8999999999999990230 ) ) ;
#181 = ADVANCED_FACE ( 'NONE', ( #10, #121 ), #212, .T. ) ;
#182 = APPLICATION_PROTOCOL_DEFINITION ( 'international standard', 'config_control_design', 1994, #59 ) ;
#183 = FACE_BOUND ( 'NONE', #75, .T. ) ;
#184 = CC_DESIGN_APPROVAL ( #221, ( #207 ) ) ;
#185 = CIRCLE ( 'NONE', #68, 0.4500000000000007327 ) ;
#186 = ORIENTED_EDGE ( 'NONE', *, *, #83, .T. ) ;
#187 = PERSON_AND_ORGANIZATION ( #21, #46 ) ;
#188 = EDGE_LOOP ( 'NONE', ( #45 ) ) ;
#189 =( GEOMETRIC_REPRESENTATION_CONTEXT ( 3 ) GLOBAL_UNCERTAINTY_ASSIGNED_CONTEXT ( ( #20 ) ) GLOBAL_UNIT_ASSIGNED_CONTEXT ( ( #122, #40, #41 ) ) REPRESENTATION_CONTEXT ( 'NONE', 'WORKASPACE' ) );
#190 = CC_DESIGN_APPROVAL ( #37, ( #100 ) ) ;
#191 = FACE_OUTER_BOUND ( 'NONE', #11, .T. ) ;
#192 = AXIS2_PLACEMENT_3D ( 'NONE', #160, #8, #70 ) ;
#193 = CARTESIAN_POINT ( 'NONE',  ( 3.142333204958816470E-15, 0.0000000000000000000, 0.8999999999999990230 ) ) ;
#194 = VERTEX_POINT ( 'NONE', #178 ) ;
#195 = VERTEX_POINT ( 'NONE', #55 ) ;
#196 = LOCAL_TIME ( 9, 48, 53.00000000000000000, #119 ) ;
#197 = EDGE_CURVE ( 'NONE', #194, #194, #185, .T. ) ;
#198 = PERSON_AND_ORGANIZATION_ROLE ( 'design_owner' ) ;
#199 = COORDINATED_UNIVERSAL_TIME_OFFSET ( 1, 0, .AHEAD. ) ;
#200 = SECURITY_CLASSIFICATION_LEVEL ( 'unclassified' ) ;
#201 = CC_DESIGN_PERSON_AND_ORGANIZATION_ASSIGNMENT ( #108, #198, ( #22 ) ) ;
#202 = PERSON_AND_ORGANIZATION ( #21, #46 ) ;
#203 = DATE_AND_TIME ( #210, #196 ) ;
#204 = ORIENTED_EDGE ( 'NONE', *, *, #152, .F. ) ;
#205 = FACE_OUTER_BOUND ( 'NONE', #145, .T. ) ;
#206 = PLANE ( 'NONE',  #99 ) ;
#207 = PRODUCT_DEFINITION ( 'UNKNOWN', '', #54, #151 ) ;
#208 = APPROVAL_PERSON_ORGANIZATION ( #105, #221, #74 ) ;
#209 = AXIS2_PLACEMENT_3D ( 'NONE', #27, #213, #25 ) ;
#210 = CALENDAR_DATE ( 2021, 15, 11 ) ;
#211 = VERTEX_POINT ( 'NONE', #139 ) ;
#212 = CYLINDRICAL_SURFACE ( 'NONE', #112, 1.500000000000000000 ) ;
#213 = DIRECTION ( 'NONE',  ( -3.491481338843133355E-15, 1.224646799147353207E-16, -1.000000000000000000 ) ) ;
#214 = CIRCLE ( 'NONE', #209, 1.199999999999999956 ) ;
#215 = CARTESIAN_POINT ( 'NONE',  ( 1.326762908760390423E-13, 1.199999999999995293, 38.00000000000000000 ) ) ;
#216 = DIRECTION ( 'NONE',  ( -3.491481338843133355E-15, 1.224646799147353207E-16, -1.000000000000000000 ) ) ;
#217 = ORIENTED_EDGE ( 'NONE', *, *, #197, .T. ) ;
#218 = DATE_AND_TIME ( #96, #175 ) ;
#219 = EDGE_LOOP ( 'NONE', ( #186 ) ) ;
#220 = ADVANCED_BREP_SHAPE_REPRESENTATION ( '977785', ( #2, #150, #64 ), #189 ) ;
#221 = APPROVAL ( #161, 'UNSPECIFIED' ) ;
#222 = AXIS2_PLACEMENT_3D ( 'NONE', #86, #177, #134 ) ;
#223 = EDGE_LOOP ( 'NONE', ( #82 ) ) ;
ENDSEC;
END-ISO-10303-21;
