ISO-10303-21;
HEADER;
FILE_DESCRIPTION (( 'STEP AP203' ),
    '1' );
FILE_NAME ('977784.step',
    '2021-11-15T08:48:52',
    ( '' ),
    ( '' ),
    'SwSTEP 2.0',
    'SolidWorks 2019',
    '' );
FILE_SCHEMA (( 'CONFIG_CONTROL_DESIGN' ));
ENDSEC;

DATA;
#1 = PRODUCT_DEFINITION ( 'UNKNOWN', '', #177, #75 ) ;
#2 = AXIS2_PLACEMENT_3D ( 'NONE', #167, #10, #79 ) ;
#3 = APPROVAL_ROLE ( '' ) ;
#4 = DIRECTION ( 'NONE',  ( 1.000000000000000000, 0.0000000000000000000, -3.523657060577895721E-15 ) ) ;
#5 = PRODUCT_DEFINITION_SHAPE ( 'NONE', 'NONE',  #1 ) ;
#6 = DIRECTION ( 'NONE',  ( 3.491481338843133355E-15, -1.224646799147353207E-16, 1.000000000000000000 ) ) ;
#7 = DIRECTION ( 'NONE',  ( -3.491481338843133355E-15, 1.224646799147353207E-16, -1.000000000000000000 ) ) ;
#8 = AXIS2_PLACEMENT_3D ( 'NONE', #164, #6, #216 ) ;
#9 = CALENDAR_DATE ( 2021, 15, 11 ) ;
#10 = DIRECTION ( 'NONE',  ( 0.0000000000000000000, 0.0000000000000000000, 1.000000000000000000 ) ) ;
#11 = CARTESIAN_POINT ( 'NONE',  ( 0.4000000000000021316, 0.0000000000000000000, 0.7999999999999976019 ) ) ;
#12 = CARTESIAN_POINT ( 'NONE',  ( 2.793185071074506290E-15, -1.156482317317871232E-16, 0.7999999999999998224 ) ) ;
#13 = AXIS2_PLACEMENT_3D ( 'NONE', #204, #51, #4 ) ;
#14 = LOCAL_TIME ( 9, 48, 52.00000000000000000, #212 ) ;
#15 = APPROVAL_PERSON_ORGANIZATION ( #97, #222, #45 ) ;
#16 = AXIS2_PLACEMENT_3D ( 'NONE', #102, #103, #98 ) ;
#17 = CYLINDRICAL_SURFACE ( 'NONE', #207, 0.3999999999999996336 ) ;
#18 = PERSON_AND_ORGANIZATION ( #74, #182 ) ;
#19 = DIRECTION ( 'NONE',  ( -1.000000000000000000, 0.0000000000000000000, 3.469446951953614189E-15 ) ) ;
#20 = ADVANCED_FACE ( 'NONE', ( #119 ), #54, .F. ) ;
#21 = CC_DESIGN_APPROVAL ( #48, ( #39 ) ) ;
#22 = FACE_OUTER_BOUND ( 'NONE', #85, .T. ) ;
#23 = PERSON_AND_ORGANIZATION_ROLE ( 'creator' ) ;
#24 = PLANE ( 'NONE',  #8 ) ;
#25 = DIRECTION ( 'NONE',  ( 0.0000000000000000000, 1.000000000000000000, 0.0000000000000000000 ) ) ;
#26 = PERSON_AND_ORGANIZATION ( #74, #182 ) ;
#27 =( NAMED_UNIT ( * ) PLANE_ANGLE_UNIT ( ) SI_UNIT ( $, .RADIAN. ) );
#28 = ORIENTED_EDGE ( 'NONE', *, *, #176, .T. ) ;
#29 = DIRECTION ( 'NONE',  ( -4.275831445896958607E-31, -1.000000000000000000, -1.224646799147353207E-16 ) ) ;
#30 = ORIENTED_EDGE ( 'NONE', *, *, #104, .F. ) ;
#31 = FACE_OUTER_BOUND ( 'NONE', #135, .T. ) ;
#32 = MANIFOLD_SOLID_BREP ( 'Corps-Déplacer/Copier1[1]', #223 ) ;
#33 = CIRCLE ( 'NONE', #214, 0.3999999999999999667 ) ;
#34 = COORDINATED_UNIVERSAL_TIME_OFFSET ( 1, 0, .AHEAD. ) ;
#35 = DIRECTION ( 'NONE',  ( -3.491481338843133355E-15, 1.224646799147353207E-16, -1.000000000000000000 ) ) ;
#36 = LOCAL_TIME ( 9, 48, 52.00000000000000000, #34 ) ;
#37 = PRODUCT_RELATED_PRODUCT_CATEGORY ( 'detail', '', ( #201 ) ) ;
#38 = CARTESIAN_POINT ( 'NONE',  ( 1.326762908760390423E-13, 8.998558695971077224E-33, 38.00000000000000000 ) ) ;
#39 = SECURITY_CLASSIFICATION ( '', '', #122 ) ;
#40 = PERSON_AND_ORGANIZATION_ROLE ( 'classification_officer' ) ;
#41 = CARTESIAN_POINT ( 'NONE',  ( -1.282749433769087582E-30, 0.0000000000000000000, -3.673940397442059375E-16 ) ) ;
#42 = DATE_AND_TIME ( #194, #191 ) ;
#43 = FACE_OUTER_BOUND ( 'NONE', #221, .T. ) ;
#44 = EDGE_CURVE ( 'NONE', #200, #200, #89, .T. ) ;
#45 = APPROVAL_ROLE ( '' ) ;
#46 = VERTEX_POINT ( 'NONE', #62 ) ;
#47 = VERTEX_POINT ( 'NONE', #82 ) ;
#48 = APPROVAL ( #140, 'UNSPECIFIED' ) ;
#49 = EDGE_LOOP ( 'NONE', ( #168 ) ) ;
#50 = ORIENTED_EDGE ( 'NONE', *, *, #44, .F. ) ;
#51 = DIRECTION ( 'NONE',  ( 3.491481338843133355E-15, -0.0000000000000000000, 1.000000000000000000 ) ) ;
#52 = CIRCLE ( 'NONE', #13, 0.3999999999999993006 ) ;
#53 = AXIS2_PLACEMENT_3D ( 'NONE', #112, #184, #25 ) ;
#54 = PLANE ( 'NONE',  #190 ) ;
#55 = FACE_OUTER_BOUND ( 'NONE', #187, .T. ) ;
#56 = APPROVAL_STATUS ( 'not_yet_approved' ) ;
#57 = APPROVAL_STATUS ( 'not_yet_approved' ) ;
#58 = DATE_AND_TIME ( #95, #66 ) ;
#59 = ADVANCED_FACE ( 'NONE', ( #208, #55 ), #17, .T. ) ;
#60 = CIRCLE ( 'NONE', #203, 1.499999999999999778 ) ;
#61 = COORDINATED_UNIVERSAL_TIME_OFFSET ( 1, 0, .AHEAD. ) ;
#62 = CARTESIAN_POINT ( 'NONE',  ( -1.499999999999983125, 0.0000000000000000000, 4.848456495999436733 ) ) ;
#63 = EDGE_LOOP ( 'NONE', ( #81 ) ) ;
#64 = EDGE_CURVE ( 'NONE', #189, #189, #52, .T. ) ;
#65 = CLOSED_SHELL ( 'NONE', ( #213, #59, #158 ) ) ;
#66 = LOCAL_TIME ( 9, 48, 52.00000000000000000, #61 ) ;
#67 = FACE_OUTER_BOUND ( 'NONE', #49, .T. ) ;
#68 = EDGE_LOOP ( 'NONE', ( #30 ) ) ;
#69 = CARTESIAN_POINT ( 'NONE',  ( 1.326762908760390423E-13, -4.653657836759941941E-15, 38.00000000000000000 ) ) ;
#70 = DIRECTION ( 'NONE',  ( 0.0000000000000000000, 1.000000000000000000, 0.0000000000000000000 ) ) ;
#71 = DATE_TIME_ROLE ( 'creation_date' ) ;
#72 = AXIS2_PLACEMENT_3D ( 'NONE', #178, #80, #19 ) ;
#73 = PERSON_AND_ORGANIZATION ( #74, #182 ) ;
#74 = PERSON ( 'UNSPECIFIED', 'UNSPECIFIED', 'UNSPECIFIED', ('UNSPECIFIED'), ('UNSPECIFIED'), ('UNSPECIFIED') ) ;
#75 = DESIGN_CONTEXT ( 'detailed design', #144, 'design' ) ;
#76 = CYLINDRICAL_SURFACE ( 'NONE', #120, 1.500000000000000000 ) ;
#77 = CARTESIAN_POINT ( 'NONE',  ( 1.326762908760390423E-13, 1.199999999999995293, 38.00000000000000000 ) ) ;
#78 = EDGE_LOOP ( 'NONE', ( #118 ) ) ;
#79 = DIRECTION ( 'NONE',  ( 1.000000000000000000, 0.0000000000000000000, 0.0000000000000000000 ) ) ;
#80 = DIRECTION ( 'NONE',  ( 3.491481338843133355E-15, -0.0000000000000000000, 1.000000000000000000 ) ) ;
#81 = ORIENTED_EDGE ( 'NONE', *, *, #109, .F. ) ;
#82 = CARTESIAN_POINT ( 'NONE',  ( 0.3999999999999999667, 0.0000000000000000000, -1.763986575281459181E-15 ) ) ;
#83 = EDGE_LOOP ( 'NONE', ( #28 ) ) ;
#84 =( LENGTH_UNIT ( ) NAMED_UNIT ( * ) SI_UNIT ( .MILLI., .METRE. ) );
#85 = EDGE_LOOP ( 'NONE', ( #218 ) ) ;
#86 = AXIS2_PLACEMENT_3D ( 'NONE', #12, #155, #29 ) ;
#87 = DIRECTION ( 'NONE',  ( 4.275831445896958607E-31, 1.000000000000000000, 1.224646799147353207E-16 ) ) ;
#88 = DATE_AND_TIME ( #220, #36 ) ;
#89 = CIRCLE ( 'NONE', #181, 1.199999999999999956 ) ;
#90 = CC_DESIGN_PERSON_AND_ORGANIZATION_ASSIGNMENT ( #26, #40, ( #39 ) ) ;
#91 =( GEOMETRIC_REPRESENTATION_CONTEXT ( 3 ) GLOBAL_UNCERTAINTY_ASSIGNED_CONTEXT ( ( #149 ) ) GLOBAL_UNIT_ASSIGNED_CONTEXT ( ( #84, #27, #185 ) ) REPRESENTATION_CONTEXT ( 'NONE', 'WORKASPACE' ) );
#92 = CARTESIAN_POINT ( 'NONE',  ( 0.0000000000000000000, 0.0000000000000000000, 0.0000000000000000000 ) ) ;
#93 = APPLICATION_PROTOCOL_DEFINITION ( 'international standard', 'config_control_design', 1994, #144 ) ;
#94 = CC_DESIGN_SECURITY_CLASSIFICATION ( #39, ( #177 ) ) ;
#95 = CALENDAR_DATE ( 2021, 15, 11 ) ;
#96 = FACE_OUTER_BOUND ( 'NONE', #78, .T. ) ;
#97 = PERSON_AND_ORGANIZATION ( #74, #182 ) ;
#98 = DIRECTION ( 'NONE',  ( 1.000000000000000000, 0.0000000000000000000, -3.491481338843132961E-15 ) ) ;
#99 = PLANE ( 'NONE',  #107 ) ;
#100 = DIRECTION ( 'NONE',  ( 3.491481338843133355E-15, -0.0000000000000000000, 1.000000000000000000 ) ) ;
#101 = PLANE ( 'NONE',  #86 ) ;
#102 = CARTESIAN_POINT ( 'NONE',  ( 2.793185071074506684E-15, 0.0000000000000000000, 0.8000000000000000444 ) ) ;
#103 = DIRECTION ( 'NONE',  ( 3.491481338843133355E-15, -0.0000000000000000000, 1.000000000000000000 ) ) ;
#104 = EDGE_CURVE ( 'NONE', #46, #46, #142, .T. ) ;
#105 = APPROVAL_ROLE ( '' ) ;
#106 = CC_DESIGN_PERSON_AND_ORGANIZATION_ASSIGNMENT ( #18, #23, ( #1 ) ) ;
#107 = AXIS2_PLACEMENT_3D ( 'NONE', #165, #7, #116 ) ;
#108 = MANIFOLD_SOLID_BREP ( 'Corps-Déplacer/Copier1[2]', #65 ) ;
#109 = EDGE_CURVE ( 'NONE', #136, #136, #60, .T. ) ;
#110 = APPROVAL_PERSON_ORGANIZATION ( #183, #48, #105 ) ;
#111 = DATE_TIME_ROLE ( 'classification_date' ) ;
#112 = CARTESIAN_POINT ( 'NONE',  ( 1.316288464743861212E-13, -4.616918432785521081E-15, 37.69999999999999574 ) ) ;
#113 = PERSON_AND_ORGANIZATION_ROLE ( 'design_supplier' ) ;
#114 = VERTEX_POINT ( 'NONE', #148 ) ;
#115 = DIRECTION ( 'NONE',  ( -3.491481338843133355E-15, 1.224646799147353207E-16, -1.000000000000000000 ) ) ;
#116 = DIRECTION ( 'NONE',  ( 4.275831445896958607E-31, 1.000000000000000000, 1.224646799147353207E-16 ) ) ;
#117 = EDGE_LOOP ( 'NONE', ( #202 ) ) ;
#118 = ORIENTED_EDGE ( 'NONE', *, *, #104, .T. ) ;
#119 = FACE_OUTER_BOUND ( 'NONE', #156, .T. ) ;
#120 = AXIS2_PLACEMENT_3D ( 'NONE', #128, #147, #197 ) ;
#121 = ORIENTED_EDGE ( 'NONE', *, *, #64, .T. ) ;
#122 = SECURITY_CLASSIFICATION_LEVEL ( 'unclassified' ) ;
#123 = PERSON_AND_ORGANIZATION ( #74, #182 ) ;
#124 = CC_DESIGN_PERSON_AND_ORGANIZATION_ASSIGNMENT ( #123, #113, ( #177 ) ) ;
#125 = DIRECTION ( 'NONE',  ( 0.0000000000000000000, 1.000000000000000000, 0.0000000000000000000 ) ) ;
#126 = PERSON_AND_ORGANIZATION_ROLE ( 'creator' ) ;
#127 = FACE_BOUND ( 'NONE', #117, .T. ) ;
#128 = CARTESIAN_POINT ( 'NONE',  ( 0.0000000000000000000, 0.0000000000000000000, 0.0000000000000000000 ) ) ;
#129 = CIRCLE ( 'NONE', #143, 0.3999999999999993006 ) ;
#130 = APPROVAL_DATE_TIME ( #58, #157 ) ;
#131 = FACE_OUTER_BOUND ( 'NONE', #68, .T. ) ;
#132 = EDGE_CURVE ( 'NONE', #47, #47, #33, .T. ) ;
#133 = CARTESIAN_POINT ( 'NONE',  ( 1.316288464743861212E-13, 1.499999999999995337, 37.69999999999999574 ) ) ;
#134 = CC_DESIGN_APPROVAL ( #157, ( #1 ) ) ;
#135 = EDGE_LOOP ( 'NONE', ( #121 ) ) ;
#136 = VERTEX_POINT ( 'NONE', #133 ) ;
#137 = CC_DESIGN_DATE_AND_TIME_ASSIGNMENT ( #42, #111, ( #39 ) ) ;
#138 = DIRECTION ( 'NONE',  ( -3.491481338843133355E-15, 1.224646799147353207E-16, -1.000000000000000000 ) ) ;
#139 = APPROVAL_PERSON_ORGANIZATION ( #215, #157, #3 ) ;
#140 = APPROVAL_STATUS ( 'not_yet_approved' ) ;
#141 = ADVANCED_BREP_SHAPE_REPRESENTATION ( '977784', ( #32, #108, #2 ), #91 ) ;
#142 = CIRCLE ( 'NONE', #72, 1.500000000000000000 ) ;
#143 = AXIS2_PLACEMENT_3D ( 'NONE', #171, #100, #170 ) ;
#144 = APPLICATION_CONTEXT ( 'configuration controlled 3d designs of mechanical parts and assemblies' ) ;
#145 = ADVANCED_FACE ( 'NONE', ( #127, #195 ), #160, .T. ) ;
#146 = CARTESIAN_POINT ( 'NONE',  ( 1.316288464743861212E-13, -4.616918432785521081E-15, 37.69999999999999574 ) ) ;
#147 = DIRECTION ( 'NONE',  ( -3.491481338843133355E-15, 1.224646799147353207E-16, -1.000000000000000000 ) ) ;
#148 = CARTESIAN_POINT ( 'NONE',  ( 0.4000000000000021316, 0.0000000000000000000, 0.7999999999999976019 ) ) ;
#149 = UNCERTAINTY_MEASURE_WITH_UNIT (LENGTH_MEASURE( 1.000000000000000082E-05 ), #84, 'distance_accuracy_value', 'NONE');
#150 = LOCAL_TIME ( 9, 48, 52.00000000000000000, #198 ) ;
#151 = ADVANCED_FACE ( 'NONE', ( #22, #96 ), #76, .T. ) ;
#152 = APPLICATION_PROTOCOL_DEFINITION ( 'international standard', 'config_control_design', 1994, #192 ) ;
#153 = ORIENTED_EDGE ( 'NONE', *, *, #64, .F. ) ;
#154 = PERSON_AND_ORGANIZATION ( #74, #182 ) ;
#155 = DIRECTION ( 'NONE',  ( 3.491481338843133355E-15, -1.224646799147353207E-16, 1.000000000000000000 ) ) ;
#156 = EDGE_LOOP ( 'NONE', ( #50 ) ) ;
#157 = APPROVAL ( #57, 'UNSPECIFIED' ) ;
#158 = ADVANCED_FACE ( 'NONE', ( #43 ), #99, .T. ) ;
#159 = DIRECTION ( 'NONE',  ( 3.491481338843133355E-15, -0.0000000000000000000, 1.000000000000000000 ) ) ;
#160 = CONICAL_SURFACE ( 'NONE', #53, 1.499999999999999778, 0.7853981633974453924 ) ;
#161 = CALENDAR_DATE ( 2021, 15, 11 ) ;
#162 = DIRECTION ( 'NONE',  ( 1.000000000000000000, 0.0000000000000000000, -3.491481338843133750E-15 ) ) ;
#163 = APPROVAL_DATE_TIME ( #179, #222 ) ;
#164 = CARTESIAN_POINT ( 'NONE',  ( 2.793185071074506290E-15, -1.156482317317871232E-16, 0.7999999999999998224 ) ) ;
#165 = CARTESIAN_POINT ( 'NONE',  ( -3.206873584422719393E-31, 1.124819836996393206E-32, -9.184850993605149670E-17 ) ) ;
#166 = EDGE_LOOP ( 'NONE', ( #188 ) ) ;
#167 = CARTESIAN_POINT ( 'NONE',  ( 0.0000000000000000000, 0.0000000000000000000, 0.0000000000000000000 ) ) ;
#168 = ORIENTED_EDGE ( 'NONE', *, *, #176, .F. ) ;
#169 = CC_DESIGN_DATE_AND_TIME_ASSIGNMENT ( #210, #71, ( #1 ) ) ;
#170 = DIRECTION ( 'NONE',  ( 1.000000000000000000, 0.0000000000000000000, -3.523657060577895721E-15 ) ) ;
#171 = CARTESIAN_POINT ( 'NONE',  ( 2.793185071074503529E-15, 0.0000000000000000000, 0.7999999999999990452 ) ) ;
#172 = SHAPE_DEFINITION_REPRESENTATION ( #5, #141 ) ;
#173 = ADVANCED_FACE ( 'NONE', ( #67 ), #101, .F. ) ;
#174 = ORIENTED_EDGE ( 'NONE', *, *, #132, .F. ) ;
#175 = TOROIDAL_SURFACE ( 'NONE', #16, 8.400000000000000355, 8.000000000000000000 ) ;
#176 = EDGE_CURVE ( 'NONE', #114, #114, #129, .T. ) ;
#177 = PRODUCT_DEFINITION_FORMATION_WITH_SPECIFIED_SOURCE ( 'ANY', '', #201, .NOT_KNOWN. ) ;
#178 = CARTESIAN_POINT ( 'NONE',  ( 1.692829537797478365E-14, 0.0000000000000000000, 4.848456495999431404 ) ) ;
#179 = DATE_AND_TIME ( #161, #14 ) ;
#180 = DIRECTION ( 'NONE',  ( 3.491481338843133355E-15, -0.0000000000000000000, 1.000000000000000000 ) ) ;
#181 = AXIS2_PLACEMENT_3D ( 'NONE', #69, #35, #70 ) ;
#182 = ORGANIZATION ( 'UNSPECIFIED', 'UNSPECIFIED', '' ) ;
#183 = PERSON_AND_ORGANIZATION ( #74, #182 ) ;
#184 = DIRECTION ( 'NONE',  ( -3.491481338843133355E-15, 1.224646799147353207E-16, -1.000000000000000000 ) ) ;
#185 =( NAMED_UNIT ( * ) SI_UNIT ( $, .STERADIAN. ) SOLID_ANGLE_UNIT ( ) );
#186 = APPROVAL_DATE_TIME ( #88, #48 ) ;
#187 = EDGE_LOOP ( 'NONE', ( #153 ) ) ;
#188 = ORIENTED_EDGE ( 'NONE', *, *, #132, .T. ) ;
#189 = VERTEX_POINT ( 'NONE', #11 ) ;
#190 = AXIS2_PLACEMENT_3D ( 'NONE', #38, #138, #87 ) ;
#191 = LOCAL_TIME ( 9, 48, 52.00000000000000000, #193 ) ;
#192 = APPLICATION_CONTEXT ( 'configuration controlled 3d designs of mechanical parts and assemblies' ) ;
#193 = COORDINATED_UNIVERSAL_TIME_OFFSET ( 1, 0, .AHEAD. ) ;
#194 = CALENDAR_DATE ( 2021, 15, 11 ) ;
#195 = FACE_OUTER_BOUND ( 'NONE', #63, .T. ) ;
#196 = CC_DESIGN_PERSON_AND_ORGANIZATION_ASSIGNMENT ( #73, #126, ( #177 ) ) ;
#197 = DIRECTION ( 'NONE',  ( 4.275831445896959482E-31, 1.000000000000000000, 1.224646799147353207E-16 ) ) ;
#198 = COORDINATED_UNIVERSAL_TIME_OFFSET ( 1, 0, .AHEAD. ) ;
#199 = FACE_OUTER_BOUND ( 'NONE', #83, .T. ) ;
#200 = VERTEX_POINT ( 'NONE', #77 ) ;
#201 = PRODUCT ( '977784', '977784', '', ( #217 ) ) ;
#202 = ORIENTED_EDGE ( 'NONE', *, *, #44, .T. ) ;
#203 = AXIS2_PLACEMENT_3D ( 'NONE', #146, #115, #125 ) ;
#204 = CARTESIAN_POINT ( 'NONE',  ( 2.793185071074503529E-15, 0.0000000000000000000, 0.7999999999999990452 ) ) ;
#205 = CC_DESIGN_PERSON_AND_ORGANIZATION_ASSIGNMENT ( #154, #219, ( #201 ) ) ;
#206 = CC_DESIGN_APPROVAL ( #222, ( #177 ) ) ;
#207 = AXIS2_PLACEMENT_3D ( 'NONE', #92, #159, #211 ) ;
#208 = FACE_OUTER_BOUND ( 'NONE', #166, .T. ) ;
#209 = ADVANCED_FACE ( 'NONE', ( #131, #199 ), #175, .F. ) ;
#210 = DATE_AND_TIME ( #9, #150 ) ;
#211 = DIRECTION ( 'NONE',  ( 1.000000000000000000, 0.0000000000000000000, -3.491481338843133750E-15 ) ) ;
#212 = COORDINATED_UNIVERSAL_TIME_OFFSET ( 1, 0, .AHEAD. ) ;
#213 = ADVANCED_FACE ( 'NONE', ( #31 ), #24, .T. ) ;
#214 = AXIS2_PLACEMENT_3D ( 'NONE', #41, #180, #162 ) ;
#215 = PERSON_AND_ORGANIZATION ( #74, #182 ) ;
#216 = DIRECTION ( 'NONE',  ( -4.275831445896958607E-31, -1.000000000000000000, -1.224646799147353207E-16 ) ) ;
#217 = MECHANICAL_CONTEXT ( 'NONE', #192, 'mechanical' ) ;
#218 = ORIENTED_EDGE ( 'NONE', *, *, #109, .T. ) ;
#219 = PERSON_AND_ORGANIZATION_ROLE ( 'design_owner' ) ;
#220 = CALENDAR_DATE ( 2021, 15, 11 ) ;
#221 = EDGE_LOOP ( 'NONE', ( #174 ) ) ;
#222 = APPROVAL ( #56, 'UNSPECIFIED' ) ;
#223 = CLOSED_SHELL ( 'NONE', ( #151, #145, #20, #209, #173 ) ) ;
ENDSEC;
END-ISO-10303-21;
