ISO-10303-21;
HEADER;
FILE_DESCRIPTION (( 'STEP AP203' ),
    '1' );
FILE_NAME ('977783.step',
    '2021-11-15T08:48:52',
    ( '' ),
    ( '' ),
    'SwSTEP 2.0',
    'SolidWorks 2019',
    '' );
FILE_SCHEMA (( 'CONFIG_CONTROL_DESIGN' ));
ENDSEC;

DATA;
#1 = AXIS2_PLACEMENT_3D ( 'NONE', #24, #8, #200 ) ;
#2 = ORIENTED_EDGE ( 'NONE', *, *, #64, .T. ) ;
#3 = CC_DESIGN_DATE_AND_TIME_ASSIGNMENT ( #176, #189, ( #85 ) ) ;
#4 = DIRECTION ( 'NONE',  ( 3.491481338843133355E-15, -0.0000000000000000000, 1.000000000000000000 ) ) ;
#5 = PLANE ( 'NONE',  #97 ) ;
#6 = PRODUCT_RELATED_PRODUCT_CATEGORY ( 'detail', '', ( #160 ) ) ;
#7 = DIRECTION ( 'NONE',  ( -3.491481338843133355E-15, 1.224646799147353207E-16, -1.000000000000000000 ) ) ;
#8 = DIRECTION ( 'NONE',  ( -3.491481338843133355E-15, 1.224646799147353207E-16, -1.000000000000000000 ) ) ;
#9 = FACE_OUTER_BOUND ( 'NONE', #54, .T. ) ;
#10 = CARTESIAN_POINT ( 'NONE',  ( -1.499999999999983125, 0.0000000000000000000, 4.832493194186778140 ) ) ;
#11 = CARTESIAN_POINT ( 'NONE',  ( -1.282749433769087582E-30, 0.0000000000000000000, -3.673940397442059375E-16 ) ) ;
#12 =( GEOMETRIC_REPRESENTATION_CONTEXT ( 3 ) GLOBAL_UNCERTAINTY_ASSIGNED_CONTEXT ( ( #132 ) ) GLOBAL_UNIT_ASSIGNED_CONTEXT ( ( #190, #120, #218 ) ) REPRESENTATION_CONTEXT ( 'NONE', 'WORKASPACE' ) );
#13 = AXIS2_PLACEMENT_3D ( 'NONE', #145, #198, #112 ) ;
#14 = PERSON_AND_ORGANIZATION_ROLE ( 'creator' ) ;
#15 = CARTESIAN_POINT ( 'NONE',  ( 0.3500000000000000333, 0.0000000000000000000, -1.589412508339302710E-15 ) ) ;
#16 = PERSON_AND_ORGANIZATION ( #194, #38 ) ;
#17 = ORIENTED_EDGE ( 'NONE', *, *, #92, .T. ) ;
#18 = EDGE_LOOP ( 'NONE', ( #88 ) ) ;
#19 = CIRCLE ( 'NONE', #180, 1.500000000000000000 ) ;
#20 = COORDINATED_UNIVERSAL_TIME_OFFSET ( 1, 0, .AHEAD. ) ;
#21 = EDGE_LOOP ( 'NONE', ( #141 ) ) ;
#22 = FACE_OUTER_BOUND ( 'NONE', #57, .T. ) ;
#23 = EDGE_CURVE ( 'NONE', #147, #147, #84, .T. ) ;
#24 = CARTESIAN_POINT ( 'NONE',  ( 1.316288464743861212E-13, -4.616918432785521081E-15, 37.69999999999999574 ) ) ;
#25 = CARTESIAN_POINT ( 'NONE',  ( 2.444036937190192560E-15, -1.011922027653137143E-16, 0.6999999999999997335 ) ) ;
#26 = FACE_OUTER_BOUND ( 'NONE', #70, .T. ) ;
#27 = VERTEX_POINT ( 'NONE', #95 ) ;
#28 = COORDINATED_UNIVERSAL_TIME_OFFSET ( 1, 0, .AHEAD. ) ;
#29 = COORDINATED_UNIVERSAL_TIME_OFFSET ( 1, 0, .AHEAD. ) ;
#30 = LOCAL_TIME ( 9, 48, 52.00000000000000000, #35 ) ;
#31 = MANIFOLD_SOLID_BREP ( 'Corps-Déplacer/Copier1[1]', #162 ) ;
#32 = CARTESIAN_POINT ( 'NONE',  ( 0.0000000000000000000, 0.0000000000000000000, 0.0000000000000000000 ) ) ;
#33 = AXIS2_PLACEMENT_3D ( 'NONE', #11, #91, #187 ) ;
#34 = DATE_AND_TIME ( #208, #171 ) ;
#35 = COORDINATED_UNIVERSAL_TIME_OFFSET ( 1, 0, .AHEAD. ) ;
#36 = AXIS2_PLACEMENT_3D ( 'NONE', #25, #93, #76 ) ;
#37 = PERSON_AND_ORGANIZATION ( #194, #38 ) ;
#38 = ORGANIZATION ( 'UNSPECIFIED', 'UNSPECIFIED', '' ) ;
#39 = LOCAL_TIME ( 9, 48, 52.00000000000000000, #28 ) ;
#40 = ORIENTED_EDGE ( 'NONE', *, *, #138, .F. ) ;
#41 = FACE_OUTER_BOUND ( 'NONE', #122, .T. ) ;
#42 = DIRECTION ( 'NONE',  ( 1.000000000000000000, 0.0000000000000000000, -3.491481338843132961E-15 ) ) ;
#43 = CARTESIAN_POINT ( 'NONE',  ( 1.326762908760390423E-13, -4.653657836759941941E-15, 38.00000000000000000 ) ) ;
#44 = PLANE ( 'NONE',  #118 ) ;
#45 = CARTESIAN_POINT ( 'NONE',  ( 0.3500000000000020317, 0.0000000000000000000, 0.6999999999999978462 ) ) ;
#46 = DIRECTION ( 'NONE',  ( -3.491481338843133355E-15, 1.224646799147353207E-16, -1.000000000000000000 ) ) ;
#47 = EDGE_CURVE ( 'NONE', #27, #27, #52, .T. ) ;
#48 = LOCAL_TIME ( 9, 48, 52.00000000000000000, #20 ) ;
#49 = CC_DESIGN_PERSON_AND_ORGANIZATION_ASSIGNMENT ( #136, #117, ( #85 ) ) ;
#50 = DATE_AND_TIME ( #82, #30 ) ;
#51 = AXIS2_PLACEMENT_3D ( 'NONE', #182, #133, #42 ) ;
#52 = CIRCLE ( 'NONE', #101, 0.3499999999999996447 ) ;
#53 = APPROVAL_STATUS ( 'not_yet_approved' ) ;
#54 = EDGE_LOOP ( 'NONE', ( #124 ) ) ;
#55 = PERSON_AND_ORGANIZATION_ROLE ( 'design_owner' ) ;
#56 = LOCAL_TIME ( 9, 48, 52.00000000000000000, #29 ) ;
#57 = EDGE_LOOP ( 'NONE', ( #142 ) ) ;
#58 = CARTESIAN_POINT ( 'NONE',  ( -3.206873584422719393E-31, 1.124819836996393206E-32, -9.184850993605149670E-17 ) ) ;
#59 = APPROVAL ( #53, 'UNSPECIFIED' ) ;
#60 = AXIS2_PLACEMENT_3D ( 'NONE', #43, #78, #74 ) ;
#61 = DIRECTION ( 'NONE',  ( 0.0000000000000000000, 1.000000000000000000, 0.0000000000000000000 ) ) ;
#62 = APPLICATION_CONTEXT ( 'configuration controlled 3d designs of mechanical parts and assemblies' ) ;
#63 = MECHANICAL_CONTEXT ( 'NONE', #62, 'mechanical' ) ;
#64 = EDGE_CURVE ( 'NONE', #65, #65, #191, .T. ) ;
#65 = VERTEX_POINT ( 'NONE', #99 ) ;
#66 = APPROVAL_DATE_TIME ( #83, #199 ) ;
#67 = CC_DESIGN_APPROVAL ( #59, ( #102 ) ) ;
#68 = APPROVAL_PERSON_ORGANIZATION ( #16, #75, #203 ) ;
#69 = EDGE_CURVE ( 'NONE', #116, #116, #178, .T. ) ;
#70 = EDGE_LOOP ( 'NONE', ( #213 ) ) ;
#71 = DIRECTION ( 'NONE',  ( 1.000000000000000000, 0.0000000000000000000, -3.407492542097303087E-15 ) ) ;
#72 = DATE_AND_TIME ( #89, #48 ) ;
#73 = PRODUCT_DEFINITION_FORMATION_WITH_SPECIFIED_SOURCE ( 'ANY', '', #160, .NOT_KNOWN. ) ;
#74 = DIRECTION ( 'NONE',  ( 0.0000000000000000000, 1.000000000000000000, 0.0000000000000000000 ) ) ;
#75 = APPROVAL ( #80, 'UNSPECIFIED' ) ;
#76 = DIRECTION ( 'NONE',  ( -4.275831445896958607E-31, -1.000000000000000000, -1.224646799147353207E-16 ) ) ;
#77 = CARTESIAN_POINT ( 'NONE',  ( 2.444036937190189799E-15, 0.0000000000000000000, 0.6999999999999990674 ) ) ;
#78 = DIRECTION ( 'NONE',  ( -3.491481338843133355E-15, 1.224646799147353207E-16, -1.000000000000000000 ) ) ;
#79 = CYLINDRICAL_SURFACE ( 'NONE', #156, 1.500000000000000000 ) ;
#80 = APPROVAL_STATUS ( 'not_yet_approved' ) ;
#81 = DIRECTION ( 'NONE',  ( 1.000000000000000000, 0.0000000000000000000, 0.0000000000000000000 ) ) ;
#82 = CALENDAR_DATE ( 2021, 15, 11 ) ;
#83 = DATE_AND_TIME ( #169, #39 ) ;
#84 = CIRCLE ( 'NONE', #201, 0.3499999999999996447 ) ;
#85 = SECURITY_CLASSIFICATION ( '', '', #204 ) ;
#86 = CC_DESIGN_PERSON_AND_ORGANIZATION_ASSIGNMENT ( #173, #157, ( #73 ) ) ;
#87 = PRODUCT_DEFINITION_SHAPE ( 'NONE', 'NONE',  #102 ) ;
#88 = ORIENTED_EDGE ( 'NONE', *, *, #64, .F. ) ;
#89 = CALENDAR_DATE ( 2021, 15, 11 ) ;
#90 = PLANE ( 'NONE',  #207 ) ;
#91 = DIRECTION ( 'NONE',  ( 3.491481338843133355E-15, -0.0000000000000000000, 1.000000000000000000 ) ) ;
#92 = EDGE_CURVE ( 'NONE', #153, #153, #220, .T. ) ;
#93 = DIRECTION ( 'NONE',  ( 3.491481338843133355E-15, -1.224646799147353207E-16, 1.000000000000000000 ) ) ;
#94 = DESIGN_CONTEXT ( 'detailed design', #172, 'design' ) ;
#95 = CARTESIAN_POINT ( 'NONE',  ( 0.3500000000000020317, 0.0000000000000000000, 0.6999999999999978462 ) ) ;
#96 = DIRECTION ( 'NONE',  ( 1.000000000000000000, 0.0000000000000000000, -3.407492542097303087E-15 ) ) ;
#97 = AXIS2_PLACEMENT_3D ( 'NONE', #58, #129, #111 ) ;
#98 = CC_DESIGN_APPROVAL ( #75, ( #85 ) ) ;
#99 = CARTESIAN_POINT ( 'NONE',  ( 1.316288464743861212E-13, 1.499999999999995337, 37.69999999999999574 ) ) ;
#100 = APPROVAL_STATUS ( 'not_yet_approved' ) ;
#101 = AXIS2_PLACEMENT_3D ( 'NONE', #77, #144, #96 ) ;
#102 = PRODUCT_DEFINITION ( 'UNKNOWN', '', #73, #94 ) ;
#103 = MANIFOLD_SOLID_BREP ( 'Corps-Déplacer/Copier1[2]', #140 ) ;
#104 = ADVANCED_FACE ( 'NONE', ( #26 ), #44, .F. ) ;
#105 = AXIS2_PLACEMENT_3D ( 'NONE', #32, #174, #81 ) ;
#106 = ORIENTED_EDGE ( 'NONE', *, *, #23, .F. ) ;
#107 = ADVANCED_FACE ( 'NONE', ( #216, #214 ), #123, .T. ) ;
#108 = APPROVAL_ROLE ( '' ) ;
#109 = ADVANCED_BREP_SHAPE_REPRESENTATION ( '977783', ( #31, #103, #105 ), #12 ) ;
#110 = EDGE_LOOP ( 'NONE', ( #40 ) ) ;
#111 = DIRECTION ( 'NONE',  ( 4.275831445896958607E-31, 1.000000000000000000, 1.224646799147353207E-16 ) ) ;
#112 = DIRECTION ( 'NONE',  ( 1.000000000000000000, 0.0000000000000000000, -3.491481338843133355E-15 ) ) ;
#113 = CARTESIAN_POINT ( 'NONE',  ( 1.326762908760390423E-13, 8.998558695971077224E-33, 38.00000000000000000 ) ) ;
#114 = CARTESIAN_POINT ( 'NONE',  ( 1.687255980758956275E-14, 0.0000000000000000000, 4.832493194186772811 ) ) ;
#115 = FACE_OUTER_BOUND ( 'NONE', #193, .T. ) ;
#116 = VERTEX_POINT ( 'NONE', #15 ) ;
#117 = PERSON_AND_ORGANIZATION_ROLE ( 'classification_officer' ) ;
#118 = AXIS2_PLACEMENT_3D ( 'NONE', #113, #46, #148 ) ;
#119 = APPLICATION_PROTOCOL_DEFINITION ( 'international standard', 'config_control_design', 1994, #62 ) ;
#120 =( NAMED_UNIT ( * ) PLANE_ANGLE_UNIT ( ) SI_UNIT ( $, .RADIAN. ) );
#121 = AXIS2_PLACEMENT_3D ( 'NONE', #166, #146, #61 ) ;
#122 = EDGE_LOOP ( 'NONE', ( #125 ) ) ;
#123 = CONICAL_SURFACE ( 'NONE', #121, 1.499999999999999778, 0.7853981633974453924 ) ;
#124 = ORIENTED_EDGE ( 'NONE', *, *, #47, .T. ) ;
#125 = ORIENTED_EDGE ( 'NONE', *, *, #69, .F. ) ;
#126 = EDGE_LOOP ( 'NONE', ( #2 ) ) ;
#127 = CC_DESIGN_PERSON_AND_ORGANIZATION_ASSIGNMENT ( #154, #14, ( #73 ) ) ;
#128 = FACE_OUTER_BOUND ( 'NONE', #192, .T. ) ;
#129 = DIRECTION ( 'NONE',  ( -3.491481338843133355E-15, 1.224646799147353207E-16, -1.000000000000000000 ) ) ;
#130 = CARTESIAN_POINT ( 'NONE',  ( 0.0000000000000000000, 0.0000000000000000000, 0.0000000000000000000 ) ) ;
#131 = CARTESIAN_POINT ( 'NONE',  ( 2.444036937190192560E-15, -1.011922027653137143E-16, 0.6999999999999997335 ) ) ;
#132 = UNCERTAINTY_MEASURE_WITH_UNIT (LENGTH_MEASURE( 1.000000000000000082E-05 ), #190, 'distance_accuracy_value', 'NONE');
#133 = DIRECTION ( 'NONE',  ( 3.491481338843133355E-15, -0.0000000000000000000, 1.000000000000000000 ) ) ;
#134 = DIRECTION ( 'NONE',  ( 3.491481338843133355E-15, -1.224646799147353207E-16, 1.000000000000000000 ) ) ;
#135 = ADVANCED_FACE ( 'NONE', ( #183 ), #90, .T. ) ;
#136 = PERSON_AND_ORGANIZATION ( #194, #38 ) ;
#137 = APPROVAL_ROLE ( '' ) ;
#138 = EDGE_CURVE ( 'NONE', #188, #188, #19, .T. ) ;
#139 = APPROVAL_DATE_TIME ( #72, #59 ) ;
#140 = CLOSED_SHELL ( 'NONE', ( #135, #175, #143 ) ) ;
#141 = ORIENTED_EDGE ( 'NONE', *, *, #23, .T. ) ;
#142 = ORIENTED_EDGE ( 'NONE', *, *, #69, .T. ) ;
#143 = ADVANCED_FACE ( 'NONE', ( #41 ), #5, .T. ) ;
#144 = DIRECTION ( 'NONE',  ( 3.491481338843133355E-15, -0.0000000000000000000, 1.000000000000000000 ) ) ;
#145 = CARTESIAN_POINT ( 'NONE',  ( 0.0000000000000000000, 0.0000000000000000000, 0.0000000000000000000 ) ) ;
#146 = DIRECTION ( 'NONE',  ( -3.491481338843133355E-15, 1.224646799147353207E-16, -1.000000000000000000 ) ) ;
#147 = VERTEX_POINT ( 'NONE', #45 ) ;
#148 = DIRECTION ( 'NONE',  ( 4.275831445896958607E-31, 1.000000000000000000, 1.224646799147353207E-16 ) ) ;
#149 = TOROIDAL_SURFACE ( 'NONE', #51, 8.349999999999999645, 8.000000000000000000 ) ;
#150 = ADVANCED_FACE ( 'NONE', ( #197, #185 ), #79, .T. ) ;
#151 = DIRECTION ( 'NONE',  ( 3.491481338843133355E-15, -0.0000000000000000000, 1.000000000000000000 ) ) ;
#152 = DATE_TIME_ROLE ( 'creation_date' ) ;
#153 = VERTEX_POINT ( 'NONE', #221 ) ;
#154 = PERSON_AND_ORGANIZATION ( #194, #38 ) ;
#155 = ADVANCED_FACE ( 'NONE', ( #184, #9 ), #149, .F. ) ;
#156 = AXIS2_PLACEMENT_3D ( 'NONE', #130, #7, #167 ) ;
#157 = PERSON_AND_ORGANIZATION_ROLE ( 'design_supplier' ) ;
#158 = CC_DESIGN_SECURITY_CLASSIFICATION ( #85, ( #73 ) ) ;
#159 = ORIENTED_EDGE ( 'NONE', *, *, #47, .F. ) ;
#160 = PRODUCT ( '977783', '977783', '', ( #63 ) ) ;
#161 = ORIENTED_EDGE ( 'NONE', *, *, #138, .T. ) ;
#162 = CLOSED_SHELL ( 'NONE', ( #150, #107, #104, #155, #211 ) ) ;
#163 = CARTESIAN_POINT ( 'NONE',  ( 2.444036937190189799E-15, 0.0000000000000000000, 0.6999999999999990674 ) ) ;
#164 = PERSON_AND_ORGANIZATION ( #194, #38 ) ;
#165 = DIRECTION ( 'NONE',  ( -4.275831445896958607E-31, -1.000000000000000000, -1.224646799147353207E-16 ) ) ;
#166 = CARTESIAN_POINT ( 'NONE',  ( 1.316288464743861212E-13, -4.616918432785521081E-15, 37.69999999999999574 ) ) ;
#167 = DIRECTION ( 'NONE',  ( 4.275831445896959482E-31, 1.000000000000000000, 1.224646799147353207E-16 ) ) ;
#168 = SHAPE_DEFINITION_REPRESENTATION ( #87, #109 ) ;
#169 = CALENDAR_DATE ( 2021, 15, 11 ) ;
#170 = APPROVAL_PERSON_ORGANIZATION ( #37, #59, #108 ) ;
#171 = LOCAL_TIME ( 9, 48, 52.00000000000000000, #219 ) ;
#172 = APPLICATION_CONTEXT ( 'configuration controlled 3d designs of mechanical parts and assemblies' ) ;
#173 = PERSON_AND_ORGANIZATION ( #194, #38 ) ;
#174 = DIRECTION ( 'NONE',  ( 0.0000000000000000000, 0.0000000000000000000, 1.000000000000000000 ) ) ;
#175 = ADVANCED_FACE ( 'NONE', ( #22, #128 ), #202, .T. ) ;
#176 = DATE_AND_TIME ( #223, #56 ) ;
#177 = CC_DESIGN_PERSON_AND_ORGANIZATION_ASSIGNMENT ( #210, #55, ( #160 ) ) ;
#178 = CIRCLE ( 'NONE', #33, 0.3500000000000000333 ) ;
#179 = CC_DESIGN_DATE_AND_TIME_ASSIGNMENT ( #50, #152, ( #102 ) ) ;
#180 = AXIS2_PLACEMENT_3D ( 'NONE', #114, #151, #196 ) ;
#181 = EDGE_LOOP ( 'NONE', ( #161 ) ) ;
#182 = CARTESIAN_POINT ( 'NONE',  ( 2.444036937190193349E-15, 0.0000000000000000000, 0.6999999999999999556 ) ) ;
#183 = FACE_OUTER_BOUND ( 'NONE', #21, .T. ) ;
#184 = FACE_OUTER_BOUND ( 'NONE', #110, .T. ) ;
#185 = FACE_OUTER_BOUND ( 'NONE', #181, .T. ) ;
#186 = PLANE ( 'NONE',  #36 ) ;
#187 = DIRECTION ( 'NONE',  ( 1.000000000000000000, 0.0000000000000000000, -3.491481338843133750E-15 ) ) ;
#188 = VERTEX_POINT ( 'NONE', #10 ) ;
#189 = DATE_TIME_ROLE ( 'classification_date' ) ;
#190 =( LENGTH_UNIT ( ) NAMED_UNIT ( * ) SI_UNIT ( .MILLI., .METRE. ) );
#191 = CIRCLE ( 'NONE', #1, 1.499999999999999778 ) ;
#192 = EDGE_LOOP ( 'NONE', ( #106 ) ) ;
#193 = EDGE_LOOP ( 'NONE', ( #159 ) ) ;
#194 = PERSON ( 'UNSPECIFIED', 'UNSPECIFIED', 'UNSPECIFIED', ('UNSPECIFIED'), ('UNSPECIFIED'), ('UNSPECIFIED') ) ;
#195 = CC_DESIGN_APPROVAL ( #199, ( #73 ) ) ;
#196 = DIRECTION ( 'NONE',  ( -1.000000000000000000, 0.0000000000000000000, 3.469446951953614189E-15 ) ) ;
#197 = FACE_OUTER_BOUND ( 'NONE', #126, .T. ) ;
#198 = DIRECTION ( 'NONE',  ( 3.491481338843133355E-15, -0.0000000000000000000, 1.000000000000000000 ) ) ;
#199 = APPROVAL ( #100, 'UNSPECIFIED' ) ;
#200 = DIRECTION ( 'NONE',  ( 0.0000000000000000000, 1.000000000000000000, 0.0000000000000000000 ) ) ;
#201 = AXIS2_PLACEMENT_3D ( 'NONE', #163, #4, #71 ) ;
#202 = CYLINDRICAL_SURFACE ( 'NONE', #13, 0.3499999999999998113 ) ;
#203 = APPROVAL_ROLE ( '' ) ;
#204 = SECURITY_CLASSIFICATION_LEVEL ( 'unclassified' ) ;
#205 = APPROVAL_PERSON_ORGANIZATION ( #222, #199, #137 ) ;
#206 = APPLICATION_PROTOCOL_DEFINITION ( 'international standard', 'config_control_design', 1994, #172 ) ;
#207 = AXIS2_PLACEMENT_3D ( 'NONE', #131, #134, #165 ) ;
#208 = CALENDAR_DATE ( 2021, 15, 11 ) ;
#209 = EDGE_LOOP ( 'NONE', ( #17 ) ) ;
#210 = PERSON_AND_ORGANIZATION ( #194, #38 ) ;
#211 = ADVANCED_FACE ( 'NONE', ( #115 ), #186, .F. ) ;
#212 = PERSON_AND_ORGANIZATION_ROLE ( 'creator' ) ;
#213 = ORIENTED_EDGE ( 'NONE', *, *, #92, .F. ) ;
#214 = FACE_OUTER_BOUND ( 'NONE', #18, .T. ) ;
#215 = CC_DESIGN_PERSON_AND_ORGANIZATION_ASSIGNMENT ( #164, #212, ( #102 ) ) ;
#216 = FACE_BOUND ( 'NONE', #209, .T. ) ;
#217 = APPROVAL_DATE_TIME ( #34, #75 ) ;
#218 =( NAMED_UNIT ( * ) SI_UNIT ( $, .STERADIAN. ) SOLID_ANGLE_UNIT ( ) );
#219 = COORDINATED_UNIVERSAL_TIME_OFFSET ( 1, 0, .AHEAD. ) ;
#220 = CIRCLE ( 'NONE', #60, 1.199999999999999956 ) ;
#221 = CARTESIAN_POINT ( 'NONE',  ( 1.326762908760390423E-13, 1.199999999999995293, 38.00000000000000000 ) ) ;
#222 = PERSON_AND_ORGANIZATION ( #194, #38 ) ;
#223 = CALENDAR_DATE ( 2021, 15, 11 ) ;
ENDSEC;
END-ISO-10303-21;
