ISO-10303-21;
HEADER;
FILE_DESCRIPTION (( 'STEP AP203' ),
    '1' );
FILE_NAME ('977782.step',
    '2021-11-15T08:48:51',
    ( '' ),
    ( '' ),
    'SwSTEP 2.0',
    'SolidWorks 2019',
    '' );
FILE_SCHEMA (( 'CONFIG_CONTROL_DESIGN' ));
ENDSEC;

DATA;
#1 = VERTEX_POINT ( 'NONE', #16 ) ;
#2 = FACE_OUTER_BOUND ( 'NONE', #149, .T. ) ;
#3 = AXIS2_PLACEMENT_3D ( 'NONE', #39, #166, #131 ) ;
#4 = VERTEX_POINT ( 'NONE', #177 ) ;
#5 = PERSON ( 'UNSPECIFIED', 'UNSPECIFIED', 'UNSPECIFIED', ('UNSPECIFIED'), ('UNSPECIFIED'), ('UNSPECIFIED') ) ;
#6 = DATE_TIME_ROLE ( 'creation_date' ) ;
#7 = PLANE ( 'NONE',  #73 ) ;
#8 = APPROVAL_STATUS ( 'not_yet_approved' ) ;
#9 = AXIS2_PLACEMENT_3D ( 'NONE', #58, #126, #93 ) ;
#10 = APPLICATION_CONTEXT ( 'configuration controlled 3d designs of mechanical parts and assemblies' ) ;
#11 = APPROVAL_STATUS ( 'not_yet_approved' ) ;
#12 = AXIS2_PLACEMENT_3D ( 'NONE', #15, #96, #193 ) ;
#13 = PRODUCT_DEFINITION_FORMATION_WITH_SPECIFIED_SOURCE ( 'ANY', '', #109, .NOT_KNOWN. ) ;
#14 = DIRECTION ( 'NONE',  ( 4.275831445896958607E-31, 1.000000000000000000, 1.224646799147353207E-16 ) ) ;
#15 = CARTESIAN_POINT ( 'NONE',  ( 1.316288464743861212E-13, -4.616918432785521081E-15, 37.69999999999999574 ) ) ;
#16 = CARTESIAN_POINT ( 'NONE',  ( 0.3000000000000020428, 0.0000000000000000000, 0.5999999999999978684 ) ) ;
#17 = FACE_OUTER_BOUND ( 'NONE', #217, .T. ) ;
#18 = ADVANCED_FACE ( 'NONE', ( #195 ), #7, .F. ) ;
#19 = DIRECTION ( 'NONE',  ( 0.0000000000000000000, 1.000000000000000000, 0.0000000000000000000 ) ) ;
#20 = ORIENTED_EDGE ( 'NONE', *, *, #110, .T. ) ;
#21 = DIRECTION ( 'NONE',  ( 4.275831445896959482E-31, 1.000000000000000000, 1.224646799147353207E-16 ) ) ;
#22 = EDGE_CURVE ( 'NONE', #4, #4, #30, .T. ) ;
#23 = ORIENTED_EDGE ( 'NONE', *, *, #150, .T. ) ;
#24 = ORIENTED_EDGE ( 'NONE', *, *, #22, .T. ) ;
#25 = DATE_AND_TIME ( #181, #52 ) ;
#26 = ORIENTED_EDGE ( 'NONE', *, *, #110, .F. ) ;
#27 = APPROVAL_ROLE ( '' ) ;
#28 = CIRCLE ( 'NONE', #165, 0.2999999999999999334 ) ;
#29 = LOCAL_TIME ( 9, 48, 51.00000000000000000, #194 ) ;
#30 = CIRCLE ( 'NONE', #129, 0.2999999999999999334 ) ;
#31 = DIRECTION ( 'NONE',  ( 1.000000000000000000, 0.0000000000000000000, -3.491481338843132961E-15 ) ) ;
#32 = ADVANCED_BREP_SHAPE_REPRESENTATION ( '977782', ( #69, #216, #211 ), #185 ) ;
#33 = FACE_OUTER_BOUND ( 'NONE', #136, .T. ) ;
#34 = CARTESIAN_POINT ( 'NONE',  ( 1.316288464743861212E-13, -4.616918432785521081E-15, 37.69999999999999574 ) ) ;
#35 = CARTESIAN_POINT ( 'NONE',  ( 2.094888803305878830E-15, -8.673617379884030542E-17, 0.5999999999999997558 ) ) ;
#36 = CARTESIAN_POINT ( 'NONE',  ( 1.316288464743861212E-13, 1.499999999999995337, 37.69999999999999574 ) ) ;
#37 = ORIENTED_EDGE ( 'NONE', *, *, #197, .T. ) ;
#38 = PRODUCT_DEFINITION ( 'UNKNOWN', '', #13, #68 ) ;
#39 = CARTESIAN_POINT ( 'NONE',  ( 1.326762908760390423E-13, 8.998558695971077224E-33, 38.00000000000000000 ) ) ;
#40 = APPROVAL_ROLE ( '' ) ;
#41 = EDGE_LOOP ( 'NONE', ( #118 ) ) ;
#42 = PERSON_AND_ORGANIZATION_ROLE ( 'design_supplier' ) ;
#43 = COORDINATED_UNIVERSAL_TIME_OFFSET ( 1, 0, .AHEAD. ) ;
#44 = ORIENTED_EDGE ( 'NONE', *, *, #170, .F. ) ;
#45 = PERSON_AND_ORGANIZATION ( #5, #219 ) ;
#46 = CALENDAR_DATE ( 2021, 15, 11 ) ;
#47 = ORIENTED_EDGE ( 'NONE', *, *, #150, .F. ) ;
#48 = CC_DESIGN_PERSON_AND_ORGANIZATION_ASSIGNMENT ( #184, #218, ( #38 ) ) ;
#49 = APPROVAL_STATUS ( 'not_yet_approved' ) ;
#50 = AXIS2_PLACEMENT_3D ( 'NONE', #142, #190, #192 ) ;
#51 = APPROVAL_PERSON_ORGANIZATION ( #139, #128, #27 ) ;
#52 = LOCAL_TIME ( 9, 48, 51.00000000000000000, #43 ) ;
#53 = DIRECTION ( 'NONE',  ( 3.491481338843133355E-15, -0.0000000000000000000, 1.000000000000000000 ) ) ;
#54 = DIRECTION ( 'NONE',  ( 3.491481338843133355E-15, -0.0000000000000000000, 1.000000000000000000 ) ) ;
#55 = FACE_OUTER_BOUND ( 'NONE', #100, .T. ) ;
#56 = CC_DESIGN_PERSON_AND_ORGANIZATION_ASSIGNMENT ( #158, #42, ( #13 ) ) ;
#57 = CARTESIAN_POINT ( 'NONE',  ( 1.326762908760390423E-13, 1.199999999999995293, 38.00000000000000000 ) ) ;
#58 = CARTESIAN_POINT ( 'NONE',  ( 2.094888803305876463E-15, 0.0000000000000000000, 0.5999999999999989786 ) ) ;
#59 = DIRECTION ( 'NONE',  ( 0.0000000000000000000, 0.0000000000000000000, 1.000000000000000000 ) ) ;
#60 = EDGE_LOOP ( 'NONE', ( #104 ) ) ;
#61 = EDGE_LOOP ( 'NONE', ( #26 ) ) ;
#62 = PERSON_AND_ORGANIZATION_ROLE ( 'creator' ) ;
#63 = SHAPE_DEFINITION_REPRESENTATION ( #199, #32 ) ;
#64 = DIRECTION ( 'NONE',  ( -4.275831445896958607E-31, -1.000000000000000000, -1.224646799147353207E-16 ) ) ;
#65 = CC_DESIGN_PERSON_AND_ORGANIZATION_ASSIGNMENT ( #83, #180, ( #109 ) ) ;
#66 = CALENDAR_DATE ( 2021, 15, 11 ) ;
#67 = CIRCLE ( 'NONE', #12, 1.499999999999999778 ) ;
#68 = DESIGN_CONTEXT ( 'detailed design', #10, 'design' ) ;
#69 = MANIFOLD_SOLID_BREP ( 'Corps-Déplacer/Copier1[1]', #70 ) ;
#70 = CLOSED_SHELL ( 'NONE', ( #202, #213, #205, #94, #18 ) ) ;
#71 = CC_DESIGN_APPROVAL ( #128, ( #38 ) ) ;
#72 = FACE_OUTER_BOUND ( 'NONE', #212, .T. ) ;
#73 = AXIS2_PLACEMENT_3D ( 'NONE', #215, #120, #64 ) ;
#74 = FACE_BOUND ( 'NONE', #178, .T. ) ;
#75 = CC_DESIGN_SECURITY_CLASSIFICATION ( #123, ( #13 ) ) ;
#76 = CARTESIAN_POINT ( 'NONE',  ( 0.0000000000000000000, 0.0000000000000000000, 0.0000000000000000000 ) ) ;
#77 = DIRECTION ( 'NONE',  ( 3.491481338843133355E-15, -1.224646799147353207E-16, 1.000000000000000000 ) ) ;
#78 = CIRCLE ( 'NONE', #200, 1.199999999999999956 ) ;
#79 = VERTEX_POINT ( 'NONE', #151 ) ;
#80 = COORDINATED_UNIVERSAL_TIME_OFFSET ( 1, 0, .AHEAD. ) ;
#81 = APPLICATION_CONTEXT ( 'configuration controlled 3d designs of mechanical parts and assemblies' ) ;
#82 = LOCAL_TIME ( 9, 48, 51.00000000000000000, #119 ) ;
#83 = PERSON_AND_ORGANIZATION ( #5, #219 ) ;
#84 = ORIENTED_EDGE ( 'NONE', *, *, #22, .F. ) ;
#85 = CIRCLE ( 'NONE', #9, 0.2999999999999999334 ) ;
#86 = DATE_AND_TIME ( #137, #82 ) ;
#87 = LOCAL_TIME ( 9, 48, 51.00000000000000000, #80 ) ;
#88 = DATE_AND_TIME ( #66, #132 ) ;
#89 = CC_DESIGN_PERSON_AND_ORGANIZATION_ASSIGNMENT ( #117, #62, ( #13 ) ) ;
#90 = UNCERTAINTY_MEASURE_WITH_UNIT (LENGTH_MEASURE( 1.000000000000000082E-05 ), #148, 'distance_accuracy_value', 'NONE');
#91 = ADVANCED_FACE ( 'NONE', ( #174 ), #221, .T. ) ;
#92 = DIRECTION ( 'NONE',  ( 3.491481338843133355E-15, -0.0000000000000000000, 1.000000000000000000 ) ) ;
#93 = DIRECTION ( 'NONE',  ( 1.000000000000000000, 0.0000000000000000000, -3.614007241618349165E-15 ) ) ;
#94 = ADVANCED_FACE ( 'NONE', ( #33, #17 ), #122, .F. ) ;
#95 = DIRECTION ( 'NONE',  ( -3.491481338843133355E-15, 1.224646799147353207E-16, -1.000000000000000000 ) ) ;
#96 = DIRECTION ( 'NONE',  ( -3.491481338843133355E-15, 1.224646799147353207E-16, -1.000000000000000000 ) ) ;
#97 = VERTEX_POINT ( 'NONE', #57 ) ;
#98 = CYLINDRICAL_SURFACE ( 'NONE', #140, 1.500000000000000000 ) ;
#99 = CARTESIAN_POINT ( 'NONE',  ( -3.206873584422719393E-31, 1.124819836996393206E-32, -9.184850993605149670E-17 ) ) ;
#100 = EDGE_LOOP ( 'NONE', ( #84 ) ) ;
#101 = APPROVAL_DATE_TIME ( #182, #164 ) ;
#102 = ORIENTED_EDGE ( 'NONE', *, *, #105, .F. ) ;
#103 = SECURITY_CLASSIFICATION_LEVEL ( 'unclassified' ) ;
#104 = ORIENTED_EDGE ( 'NONE', *, *, #105, .T. ) ;
#105 = EDGE_CURVE ( 'NONE', #1, #1, #28, .T. ) ;
#106 = DATE_TIME_ROLE ( 'classification_date' ) ;
#107 = DIRECTION ( 'NONE',  ( 3.491481338843133355E-15, -0.0000000000000000000, 1.000000000000000000 ) ) ;
#108 = APPLICATION_PROTOCOL_DEFINITION ( 'international standard', 'config_control_design', 1994, #10 ) ;
#109 = PRODUCT ( '977782', '977782', '', ( #176 ) ) ;
#110 = EDGE_CURVE ( 'NONE', #79, #79, #85, .T. ) ;
#111 = APPROVAL_PERSON_ORGANIZATION ( #169, #164, #40 ) ;
#112 = CARTESIAN_POINT ( 'NONE',  ( -1.499999999999983125, 0.0000000000000000000, 4.814261501141099409 ) ) ;
#113 = CARTESIAN_POINT ( 'NONE',  ( 2.094888803305879619E-15, 0.0000000000000000000, 0.5999999999999999778 ) ) ;
#114 =( NAMED_UNIT ( * ) SI_UNIT ( $, .STERADIAN. ) SOLID_ANGLE_UNIT ( ) );
#115 = PLANE ( 'NONE',  #3 ) ;
#116 = AXIS2_PLACEMENT_3D ( 'NONE', #34, #146, #19 ) ;
#117 = PERSON_AND_ORGANIZATION ( #5, #219 ) ;
#118 = ORIENTED_EDGE ( 'NONE', *, *, #170, .T. ) ;
#119 = COORDINATED_UNIVERSAL_TIME_OFFSET ( 1, 0, .AHEAD. ) ;
#120 = DIRECTION ( 'NONE',  ( 3.491481338843133355E-15, -1.224646799147353207E-16, 1.000000000000000000 ) ) ;
#121 = APPROVAL_DATE_TIME ( #88, #134 ) ;
#122 = TOROIDAL_SURFACE ( 'NONE', #203, 8.300000000000000711, 8.000000000000000000 ) ;
#123 = SECURITY_CLASSIFICATION ( '', '', #103 ) ;
#124 = PRODUCT_RELATED_PRODUCT_CATEGORY ( 'detail', '', ( #109 ) ) ;
#125 = APPROVAL_PERSON_ORGANIZATION ( #45, #134, #214 ) ;
#126 = DIRECTION ( 'NONE',  ( 3.491481338843133355E-15, -0.0000000000000000000, 1.000000000000000000 ) ) ;
#127 = DIRECTION ( 'NONE',  ( 0.0000000000000000000, 1.000000000000000000, 0.0000000000000000000 ) ) ;
#128 = APPROVAL ( #11, 'UNSPECIFIED' ) ;
#129 = AXIS2_PLACEMENT_3D ( 'NONE', #155, #107, #31 ) ;
#130 =( NAMED_UNIT ( * ) PLANE_ANGLE_UNIT ( ) SI_UNIT ( $, .RADIAN. ) );
#131 = DIRECTION ( 'NONE',  ( 4.275831445896958607E-31, 1.000000000000000000, 1.224646799147353207E-16 ) ) ;
#132 = LOCAL_TIME ( 9, 48, 51.00000000000000000, #154 ) ;
#133 = EDGE_LOOP ( 'NONE', ( #152 ) ) ;
#134 = APPROVAL ( #49, 'UNSPECIFIED' ) ;
#135 = FACE_OUTER_BOUND ( 'NONE', #41, .T. ) ;
#136 = EDGE_LOOP ( 'NONE', ( #44 ) ) ;
#137 = CALENDAR_DATE ( 2021, 15, 11 ) ;
#138 = EDGE_LOOP ( 'NONE', ( #102 ) ) ;
#139 = PERSON_AND_ORGANIZATION ( #5, #219 ) ;
#140 = AXIS2_PLACEMENT_3D ( 'NONE', #222, #160, #21 ) ;
#141 = FACE_OUTER_BOUND ( 'NONE', #138, .T. ) ;
#142 = CARTESIAN_POINT ( 'NONE',  ( 1.680890419154506286E-14, 0.0000000000000000000, 4.814261501141094080 ) ) ;
#143 = FACE_OUTER_BOUND ( 'NONE', #168, .T. ) ;
#144 = ADVANCED_FACE ( 'NONE', ( #72, #141 ), #206, .T. ) ;
#145 = DIRECTION ( 'NONE',  ( -4.275831445896958607E-31, -1.000000000000000000, -1.224646799147353207E-16 ) ) ;
#146 = DIRECTION ( 'NONE',  ( -3.491481338843133355E-15, 1.224646799147353207E-16, -1.000000000000000000 ) ) ;
#147 = AXIS2_PLACEMENT_3D ( 'NONE', #35, #77, #145 ) ;
#148 =( LENGTH_UNIT ( ) NAMED_UNIT ( * ) SI_UNIT ( .MILLI., .METRE. ) );
#149 = EDGE_LOOP ( 'NONE', ( #23 ) ) ;
#150 = EDGE_CURVE ( 'NONE', #220, #220, #67, .T. ) ;
#151 = CARTESIAN_POINT ( 'NONE',  ( 0.3000000000000020428, 0.0000000000000000000, 0.5999999999999978684 ) ) ;
#152 = ORIENTED_EDGE ( 'NONE', *, *, #197, .F. ) ;
#153 = CALENDAR_DATE ( 2021, 15, 11 ) ;
#154 = COORDINATED_UNIVERSAL_TIME_OFFSET ( 1, 0, .AHEAD. ) ;
#155 = CARTESIAN_POINT ( 'NONE',  ( -1.282749433769087582E-30, 0.0000000000000000000, -3.673940397442059375E-16 ) ) ;
#156 = APPROVAL_DATE_TIME ( #86, #128 ) ;
#157 = CC_DESIGN_DATE_AND_TIME_ASSIGNMENT ( #25, #106, ( #123 ) ) ;
#158 = PERSON_AND_ORGANIZATION ( #5, #219 ) ;
#159 = CIRCLE ( 'NONE', #50, 1.500000000000000000 ) ;
#160 = DIRECTION ( 'NONE',  ( -3.491481338843133355E-15, 1.224646799147353207E-16, -1.000000000000000000 ) ) ;
#161 = DIRECTION ( 'NONE',  ( -3.491481338843133355E-15, 1.224646799147353207E-16, -1.000000000000000000 ) ) ;
#162 = DIRECTION ( 'NONE',  ( 1.000000000000000000, 0.0000000000000000000, -3.491481338843132961E-15 ) ) ;
#163 = DIRECTION ( 'NONE',  ( 1.000000000000000000, 0.0000000000000000000, 0.0000000000000000000 ) ) ;
#164 = APPROVAL ( #8, 'UNSPECIFIED' ) ;
#165 = AXIS2_PLACEMENT_3D ( 'NONE', #204, #53, #223 ) ;
#166 = DIRECTION ( 'NONE',  ( -3.491481338843133355E-15, 1.224646799147353207E-16, -1.000000000000000000 ) ) ;
#167 = PERSON_AND_ORGANIZATION ( #5, #219 ) ;
#168 = EDGE_LOOP ( 'NONE', ( #47 ) ) ;
#169 = PERSON_AND_ORGANIZATION ( #5, #219 ) ;
#170 = EDGE_CURVE ( 'NONE', #210, #210, #159, .T. ) ;
#171 = CC_DESIGN_APPROVAL ( #164, ( #123 ) ) ;
#172 = AXIS2_PLACEMENT_3D ( 'NONE', #99, #161, #14 ) ;
#173 = APPLICATION_PROTOCOL_DEFINITION ( 'international standard', 'config_control_design', 1994, #81 ) ;
#174 = FACE_OUTER_BOUND ( 'NONE', #60, .T. ) ;
#175 = FACE_OUTER_BOUND ( 'NONE', #133, .T. ) ;
#176 = MECHANICAL_CONTEXT ( 'NONE', #81, 'mechanical' ) ;
#177 = CARTESIAN_POINT ( 'NONE',  ( 0.2999999999999999334, 0.0000000000000000000, -1.414838441397145648E-15 ) ) ;
#178 = EDGE_LOOP ( 'NONE', ( #37 ) ) ;
#179 = AXIS2_PLACEMENT_3D ( 'NONE', #76, #54, #188 ) ;
#180 = PERSON_AND_ORGANIZATION_ROLE ( 'design_owner' ) ;
#181 = CALENDAR_DATE ( 2021, 15, 11 ) ;
#182 = DATE_AND_TIME ( #46, #87 ) ;
#183 = ADVANCED_FACE ( 'NONE', ( #55 ), #208, .T. ) ;
#184 = PERSON_AND_ORGANIZATION ( #5, #219 ) ;
#185 =( GEOMETRIC_REPRESENTATION_CONTEXT ( 3 ) GLOBAL_UNCERTAINTY_ASSIGNED_CONTEXT ( ( #90 ) ) GLOBAL_UNIT_ASSIGNED_CONTEXT ( ( #148, #130, #114 ) ) REPRESENTATION_CONTEXT ( 'NONE', 'WORKASPACE' ) );
#186 = CC_DESIGN_PERSON_AND_ORGANIZATION_ASSIGNMENT ( #167, #196, ( #123 ) ) ;
#187 = CC_DESIGN_DATE_AND_TIME_ASSIGNMENT ( #198, #6, ( #38 ) ) ;
#188 = DIRECTION ( 'NONE',  ( 1.000000000000000000, 0.0000000000000000000, -3.491481338843132961E-15 ) ) ;
#189 = CARTESIAN_POINT ( 'NONE',  ( 1.326762908760390423E-13, -4.653657836759941941E-15, 38.00000000000000000 ) ) ;
#190 = DIRECTION ( 'NONE',  ( 3.491481338843133355E-15, -0.0000000000000000000, 1.000000000000000000 ) ) ;
#191 = CLOSED_SHELL ( 'NONE', ( #91, #144, #183 ) ) ;
#192 = DIRECTION ( 'NONE',  ( -1.000000000000000000, 0.0000000000000000000, 3.469446951953614189E-15 ) ) ;
#193 = DIRECTION ( 'NONE',  ( 0.0000000000000000000, 1.000000000000000000, 0.0000000000000000000 ) ) ;
#194 = COORDINATED_UNIVERSAL_TIME_OFFSET ( 1, 0, .AHEAD. ) ;
#195 = FACE_OUTER_BOUND ( 'NONE', #61, .T. ) ;
#196 = PERSON_AND_ORGANIZATION_ROLE ( 'classification_officer' ) ;
#197 = EDGE_CURVE ( 'NONE', #97, #97, #78, .T. ) ;
#198 = DATE_AND_TIME ( #153, #29 ) ;
#199 = PRODUCT_DEFINITION_SHAPE ( 'NONE', 'NONE',  #38 ) ;
#200 = AXIS2_PLACEMENT_3D ( 'NONE', #189, #95, #127 ) ;
#201 = CC_DESIGN_APPROVAL ( #134, ( #13 ) ) ;
#202 = ADVANCED_FACE ( 'NONE', ( #2, #135 ), #98, .T. ) ;
#203 = AXIS2_PLACEMENT_3D ( 'NONE', #113, #92, #162 ) ;
#204 = CARTESIAN_POINT ( 'NONE',  ( 2.094888803305876463E-15, 0.0000000000000000000, 0.5999999999999989786 ) ) ;
#205 = ADVANCED_FACE ( 'NONE', ( #175 ), #115, .F. ) ;
#206 = CYLINDRICAL_SURFACE ( 'NONE', #179, 0.2999999999999999334 ) ;
#207 = CONICAL_SURFACE ( 'NONE', #116, 1.499999999999999778, 0.7853981633974453924 ) ;
#208 = PLANE ( 'NONE',  #172 ) ;
#209 = CARTESIAN_POINT ( 'NONE',  ( 0.0000000000000000000, 0.0000000000000000000, 0.0000000000000000000 ) ) ;
#210 = VERTEX_POINT ( 'NONE', #112 ) ;
#211 = AXIS2_PLACEMENT_3D ( 'NONE', #209, #59, #163 ) ;
#212 = EDGE_LOOP ( 'NONE', ( #24 ) ) ;
#213 = ADVANCED_FACE ( 'NONE', ( #74, #143 ), #207, .T. ) ;
#214 = APPROVAL_ROLE ( '' ) ;
#215 = CARTESIAN_POINT ( 'NONE',  ( 2.094888803305878830E-15, -8.673617379884030542E-17, 0.5999999999999997558 ) ) ;
#216 = MANIFOLD_SOLID_BREP ( 'Corps-Déplacer/Copier1[2]', #191 ) ;
#217 = EDGE_LOOP ( 'NONE', ( #20 ) ) ;
#218 = PERSON_AND_ORGANIZATION_ROLE ( 'creator' ) ;
#219 = ORGANIZATION ( 'UNSPECIFIED', 'UNSPECIFIED', '' ) ;
#220 = VERTEX_POINT ( 'NONE', #36 ) ;
#221 = PLANE ( 'NONE',  #147 ) ;
#222 = CARTESIAN_POINT ( 'NONE',  ( 0.0000000000000000000, 0.0000000000000000000, 0.0000000000000000000 ) ) ;
#223 = DIRECTION ( 'NONE',  ( 1.000000000000000000, 0.0000000000000000000, -3.614007241618349165E-15 ) ) ;
ENDSEC;
END-ISO-10303-21;
