ISO-10303-21;
HEADER;
FILE_DESCRIPTION (( 'STEP AP203' ),
    '1' );
FILE_NAME ('977781.step',
    '2021-11-15T08:48:51',
    ( '' ),
    ( '' ),
    'SwSTEP 2.0',
    'SolidWorks 2019',
    '' );
FILE_SCHEMA (( 'CONFIG_CONTROL_DESIGN' ));
ENDSEC;

DATA;
#1 =( GEOMETRIC_REPRESENTATION_CONTEXT ( 3 ) GLOBAL_UNCERTAINTY_ASSIGNED_CONTEXT ( ( #21 ) ) GLOBAL_UNIT_ASSIGNED_CONTEXT ( ( #173, #154, #132 ) ) REPRESENTATION_CONTEXT ( 'NONE', 'WORKASPACE' ) );
#2 = CALENDAR_DATE ( 2021, 15, 11 ) ;
#3 = PERSON_AND_ORGANIZATION ( #108, #161 ) ;
#4 = PERSON_AND_ORGANIZATION_ROLE ( 'creator' ) ;
#5 = ORIENTED_EDGE ( 'NONE', *, *, #7, .T. ) ;
#6 = LOCAL_TIME ( 9, 48, 51.00000000000000000, #33 ) ;
#7 = EDGE_CURVE ( 'NONE', #206, #206, #86, .T. ) ;
#8 = EDGE_LOOP ( 'NONE', ( #112 ) ) ;
#9 = TOROIDAL_SURFACE ( 'NONE', #22, 8.250000000000000000, 8.000000000000000000 ) ;
#10 = CARTESIAN_POINT ( 'NONE',  ( 1.745740669421566678E-15, 0.0000000000000000000, 0.5000000000000000000 ) ) ;
#11 = DIRECTION ( 'NONE',  ( -1.000000000000000000, 0.0000000000000000000, 3.469446951953614189E-15 ) ) ;
#12 = FACE_OUTER_BOUND ( 'NONE', #20, .T. ) ;
#13 = CARTESIAN_POINT ( 'NONE',  ( 0.0000000000000000000, 0.0000000000000000000, 0.0000000000000000000 ) ) ;
#14 = SECURITY_CLASSIFICATION ( '', '', #177 ) ;
#15 = VERTEX_POINT ( 'NONE', #186 ) ;
#16 = CC_DESIGN_PERSON_AND_ORGANIZATION_ASSIGNMENT ( #190, #35, ( #207 ) ) ;
#17 = PERSON_AND_ORGANIZATION ( #108, #161 ) ;
#18 = APPROVAL_DATE_TIME ( #50, #102 ) ;
#19 = AXIS2_PLACEMENT_3D ( 'NONE', #60, #62, #121 ) ;
#20 = EDGE_LOOP ( 'NONE', ( #23 ) ) ;
#21 = UNCERTAINTY_MEASURE_WITH_UNIT (LENGTH_MEASURE( 1.000000000000000082E-05 ), #173, 'distance_accuracy_value', 'NONE');
#22 = AXIS2_PLACEMENT_3D ( 'NONE', #10, #185, #200 ) ;
#23 = ORIENTED_EDGE ( 'NONE', *, *, #97, .T. ) ;
#24 = CARTESIAN_POINT ( 'NONE',  ( -3.206873584422719393E-31, 1.124819836996393206E-32, -9.184850993605149670E-17 ) ) ;
#25 = CLOSED_SHELL ( 'NONE', ( #210, #117, #71 ) ) ;
#26 = FACE_OUTER_BOUND ( 'NONE', #194, .T. ) ;
#27 = VERTEX_POINT ( 'NONE', #32 ) ;
#28 = DIRECTION ( 'NONE',  ( 1.000000000000000000, 0.0000000000000000000, -3.469446951953611033E-15 ) ) ;
#29 = VERTEX_POINT ( 'NONE', #205 ) ;
#30 = APPROVAL_PERSON_ORGANIZATION ( #158, #102, #176 ) ;
#31 = CIRCLE ( 'NONE', #125, 1.500000000000000000 ) ;
#32 = CARTESIAN_POINT ( 'NONE',  ( 0.2500000000000019429, 0.0000000000000000000, 0.4999999999999981681 ) ) ;
#33 = COORDINATED_UNIVERSAL_TIME_OFFSET ( 1, 0, .AHEAD. ) ;
#34 = AXIS2_PLACEMENT_3D ( 'NONE', #13, #87, #67 ) ;
#35 = PERSON_AND_ORGANIZATION_ROLE ( 'creator' ) ;
#36 = EDGE_LOOP ( 'NONE', ( #57 ) ) ;
#37 = DIRECTION ( 'NONE',  ( 0.0000000000000000000, 1.000000000000000000, 0.0000000000000000000 ) ) ;
#38 = CC_DESIGN_PERSON_AND_ORGANIZATION_ASSIGNMENT ( #223, #184, ( #222 ) ) ;
#39 = ORIENTED_EDGE ( 'NONE', *, *, #162, .T. ) ;
#40 = AXIS2_PLACEMENT_3D ( 'NONE', #120, #77, #215 ) ;
#41 = EDGE_LOOP ( 'NONE', ( #164 ) ) ;
#42 = DIRECTION ( 'NONE',  ( 0.0000000000000000000, 1.000000000000000000, 0.0000000000000000000 ) ) ;
#43 = DIRECTION ( 'NONE',  ( 0.0000000000000000000, 1.000000000000000000, 0.0000000000000000000 ) ) ;
#44 = CARTESIAN_POINT ( 'NONE',  ( 1.326762908760390423E-13, -4.653657836759941941E-15, 38.00000000000000000 ) ) ;
#45 = DIRECTION ( 'NONE',  ( -3.491481338843133355E-15, 1.224646799147353207E-16, -1.000000000000000000 ) ) ;
#46 = CYLINDRICAL_SURFACE ( 'NONE', #40, 0.2500000000000001110 ) ;
#47 = VERTEX_POINT ( 'NONE', #134 ) ;
#48 = APPROVAL ( #126, 'UNSPECIFIED' ) ;
#49 = DIRECTION ( 'NONE',  ( 3.491481338843133355E-15, -0.0000000000000000000, 1.000000000000000000 ) ) ;
#50 = DATE_AND_TIME ( #111, #172 ) ;
#51 = APPROVAL_STATUS ( 'not_yet_approved' ) ;
#52 = CC_DESIGN_DATE_AND_TIME_ASSIGNMENT ( #123, #69, ( #128 ) ) ;
#53 = ORIENTED_EDGE ( 'NONE', *, *, #97, .F. ) ;
#54 = CARTESIAN_POINT ( 'NONE',  ( 1.316288464743861212E-13, -4.616918432785521081E-15, 37.69999999999999574 ) ) ;
#55 = APPROVAL_PERSON_ORGANIZATION ( #93, #48, #209 ) ;
#56 = ADVANCED_FACE ( 'NONE', ( #26 ), #199, .F. ) ;
#57 = ORIENTED_EDGE ( 'NONE', *, *, #198, .T. ) ;
#58 = CARTESIAN_POINT ( 'NONE',  ( -1.282749433769087582E-30, 0.0000000000000000000, -3.673940397442059375E-16 ) ) ;
#59 = CYLINDRICAL_SURFACE ( 'NONE', #101, 1.500000000000000000 ) ;
#60 = CARTESIAN_POINT ( 'NONE',  ( 1.745740669421563325E-15, 0.0000000000000000000, 0.4999999999999990563 ) ) ;
#61 = DIRECTION ( 'NONE',  ( 3.491481338843133355E-15, -0.0000000000000000000, 1.000000000000000000 ) ) ;
#62 = DIRECTION ( 'NONE',  ( 3.491481338843133355E-15, -0.0000000000000000000, 1.000000000000000000 ) ) ;
#63 = EDGE_CURVE ( 'NONE', #136, #136, #122, .T. ) ;
#64 = AXIS2_PLACEMENT_3D ( 'NONE', #44, #80, #42 ) ;
#65 = CARTESIAN_POINT ( 'NONE',  ( 1.326762908760390423E-13, 1.199999999999995293, 38.00000000000000000 ) ) ;
#66 = CARTESIAN_POINT ( 'NONE',  ( 1.745740669421563325E-15, 0.0000000000000000000, 0.4999999999999990563 ) ) ;
#67 = DIRECTION ( 'NONE',  ( 1.000000000000000000, 0.0000000000000000000, 0.0000000000000000000 ) ) ;
#68 = CIRCLE ( 'NONE', #203, 0.2500000000000002220 ) ;
#69 = DATE_TIME_ROLE ( 'creation_date' ) ;
#70 = SHAPE_DEFINITION_REPRESENTATION ( #84, #83 ) ;
#71 = ADVANCED_FACE ( 'NONE', ( #216 ), #183, .T. ) ;
#72 = CALENDAR_DATE ( 2021, 15, 11 ) ;
#73 = CC_DESIGN_SECURITY_CLASSIFICATION ( #14, ( #207 ) ) ;
#74 = EDGE_LOOP ( 'NONE', ( #75 ) ) ;
#75 = ORIENTED_EDGE ( 'NONE', *, *, #63, .T. ) ;
#76 = EDGE_LOOP ( 'NONE', ( #39 ) ) ;
#77 = DIRECTION ( 'NONE',  ( 3.491481338843133355E-15, -0.0000000000000000000, 1.000000000000000000 ) ) ;
#78 = DIRECTION ( 'NONE',  ( 4.275831445896958607E-31, 1.000000000000000000, 1.224646799147353207E-16 ) ) ;
#79 = FACE_BOUND ( 'NONE', #74, .T. ) ;
#80 = DIRECTION ( 'NONE',  ( -3.491481338843133355E-15, 1.224646799147353207E-16, -1.000000000000000000 ) ) ;
#81 = CARTESIAN_POINT ( 'NONE',  ( 1.673778099952152609E-14, 0.0000000000000000000, 4.793891009329415809 ) ) ;
#82 = ADVANCED_FACE ( 'NONE', ( #103, #99 ), #59, .T. ) ;
#83 = ADVANCED_BREP_SHAPE_REPRESENTATION ( '977781', ( #133, #129, #34 ), #1 ) ;
#84 = PRODUCT_DEFINITION_SHAPE ( 'NONE', 'NONE',  #128 ) ;
#85 = APPLICATION_PROTOCOL_DEFINITION ( 'international standard', 'config_control_design', 1994, #211 ) ;
#86 = CIRCLE ( 'NONE', #96, 1.499999999999999778 ) ;
#87 = DIRECTION ( 'NONE',  ( 0.0000000000000000000, 0.0000000000000000000, 1.000000000000000000 ) ) ;
#88 = CALENDAR_DATE ( 2021, 15, 11 ) ;
#89 = AXIS2_PLACEMENT_3D ( 'NONE', #58, #61, #149 ) ;
#90 = CALENDAR_DATE ( 2021, 15, 11 ) ;
#91 = DATE_AND_TIME ( #2, #106 ) ;
#92 = CC_DESIGN_PERSON_AND_ORGANIZATION_ASSIGNMENT ( #174, #208, ( #14 ) ) ;
#93 = PERSON_AND_ORGANIZATION ( #108, #161 ) ;
#94 = COORDINATED_UNIVERSAL_TIME_OFFSET ( 1, 0, .AHEAD. ) ;
#95 = ORIENTED_EDGE ( 'NONE', *, *, #162, .F. ) ;
#96 = AXIS2_PLACEMENT_3D ( 'NONE', #54, #195, #37 ) ;
#97 = EDGE_CURVE ( 'NONE', #15, #15, #166, .T. ) ;
#98 = ORIENTED_EDGE ( 'NONE', *, *, #160, .F. ) ;
#99 = FACE_OUTER_BOUND ( 'NONE', #76, .T. ) ;
#100 = APPLICATION_PROTOCOL_DEFINITION ( 'international standard', 'config_control_design', 1994, #163 ) ;
#101 = AXIS2_PLACEMENT_3D ( 'NONE', #131, #118, #168 ) ;
#102 = APPROVAL ( #51, 'UNSPECIFIED' ) ;
#103 = FACE_OUTER_BOUND ( 'NONE', #212, .T. ) ;
#104 = DIRECTION ( 'NONE',  ( -4.275831445896958607E-31, -1.000000000000000000, -1.224646799147353207E-16 ) ) ;
#105 = DIRECTION ( 'NONE',  ( 3.491481338843133355E-15, -0.0000000000000000000, 1.000000000000000000 ) ) ;
#106 = LOCAL_TIME ( 9, 48, 51.00000000000000000, #157 ) ;
#107 = DIRECTION ( 'NONE',  ( 3.491481338843133355E-15, -1.224646799147353207E-16, 1.000000000000000000 ) ) ;
#108 = PERSON ( 'UNSPECIFIED', 'UNSPECIFIED', 'UNSPECIFIED', ('UNSPECIFIED'), ('UNSPECIFIED'), ('UNSPECIFIED') ) ;
#109 = AXIS2_PLACEMENT_3D ( 'NONE', #221, #107, #104 ) ;
#110 = COORDINATED_UNIVERSAL_TIME_OFFSET ( 1, 0, .AHEAD. ) ;
#111 = CALENDAR_DATE ( 2021, 15, 11 ) ;
#112 = ORIENTED_EDGE ( 'NONE', *, *, #7, .F. ) ;
#113 = AXIS2_PLACEMENT_3D ( 'NONE', #137, #204, #43 ) ;
#114 = ADVANCED_FACE ( 'NONE', ( #147, #130 ), #9, .F. ) ;
#115 = EDGE_LOOP ( 'NONE', ( #95 ) ) ;
#116 = DIRECTION ( 'NONE',  ( -4.275831445896958607E-31, -1.000000000000000000, -1.224646799147353207E-16 ) ) ;
#117 = ADVANCED_FACE ( 'NONE', ( #12, #202 ), #46, .T. ) ;
#118 = DIRECTION ( 'NONE',  ( -3.491481338843133355E-15, 1.224646799147353207E-16, -1.000000000000000000 ) ) ;
#119 = FACE_OUTER_BOUND ( 'NONE', #8, .T. ) ;
#120 = CARTESIAN_POINT ( 'NONE',  ( 0.0000000000000000000, 0.0000000000000000000, 0.0000000000000000000 ) ) ;
#121 = DIRECTION ( 'NONE',  ( 1.000000000000000000, 0.0000000000000000000, -3.469446951953611033E-15 ) ) ;
#122 = CIRCLE ( 'NONE', #64, 1.199999999999999956 ) ;
#123 = DATE_AND_TIME ( #90, #6 ) ;
#124 = CC_DESIGN_DATE_AND_TIME_ASSIGNMENT ( #141, #193, ( #14 ) ) ;
#125 = AXIS2_PLACEMENT_3D ( 'NONE', #81, #105, #11 ) ;
#126 = APPROVAL_STATUS ( 'not_yet_approved' ) ;
#127 = CLOSED_SHELL ( 'NONE', ( #82, #170, #153, #114, #56 ) ) ;
#128 = PRODUCT_DEFINITION ( 'UNKNOWN', '', #207, #145 ) ;
#129 = MANIFOLD_SOLID_BREP ( 'Corps-Déplacer/Copier1[2]', #25 ) ;
#130 = FACE_OUTER_BOUND ( 'NONE', #41, .T. ) ;
#131 = CARTESIAN_POINT ( 'NONE',  ( 0.0000000000000000000, 0.0000000000000000000, 0.0000000000000000000 ) ) ;
#132 =( NAMED_UNIT ( * ) SI_UNIT ( $, .STERADIAN. ) SOLID_ANGLE_UNIT ( ) );
#133 = MANIFOLD_SOLID_BREP ( 'Corps-Déplacer/Copier1[1]', #127 ) ;
#134 = CARTESIAN_POINT ( 'NONE',  ( -1.499999999999983347, 0.0000000000000000000, 4.793891009329421138 ) ) ;
#135 = CIRCLE ( 'NONE', #19, 0.2500000000000002220 ) ;
#136 = VERTEX_POINT ( 'NONE', #65 ) ;
#137 = CARTESIAN_POINT ( 'NONE',  ( 1.316288464743861212E-13, -4.616918432785521081E-15, 37.69999999999999574 ) ) ;
#138 = AXIS2_PLACEMENT_3D ( 'NONE', #219, #45, #169 ) ;
#139 = APPROVAL_STATUS ( 'not_yet_approved' ) ;
#140 = PRODUCT_RELATED_PRODUCT_CATEGORY ( 'detail', '', ( #222 ) ) ;
#141 = DATE_AND_TIME ( #72, #156 ) ;
#142 = PERSON_AND_ORGANIZATION_ROLE ( 'design_supplier' ) ;
#143 = DATE_AND_TIME ( #88, #189 ) ;
#144 = APPROVAL ( #139, 'UNSPECIFIED' ) ;
#145 = DESIGN_CONTEXT ( 'detailed design', #163, 'design' ) ;
#146 = EDGE_LOOP ( 'NONE', ( #53 ) ) ;
#147 = FACE_OUTER_BOUND ( 'NONE', #115, .T. ) ;
#148 = CC_DESIGN_APPROVAL ( #48, ( #14 ) ) ;
#149 = DIRECTION ( 'NONE',  ( 1.000000000000000000, 0.0000000000000000000, -3.491481338843133355E-15 ) ) ;
#150 = DIRECTION ( 'NONE',  ( -3.491481338843133355E-15, 1.224646799147353207E-16, -1.000000000000000000 ) ) ;
#151 = PLANE ( 'NONE',  #138 ) ;
#152 = MECHANICAL_CONTEXT ( 'NONE', #211, 'mechanical' ) ;
#153 = ADVANCED_FACE ( 'NONE', ( #201 ), #151, .F. ) ;
#154 =( NAMED_UNIT ( * ) PLANE_ANGLE_UNIT ( ) SI_UNIT ( $, .RADIAN. ) );
#155 = APPROVAL_DATE_TIME ( #143, #48 ) ;
#156 = LOCAL_TIME ( 9, 48, 51.00000000000000000, #110 ) ;
#157 = COORDINATED_UNIVERSAL_TIME_OFFSET ( 1, 0, .AHEAD. ) ;
#158 = PERSON_AND_ORGANIZATION ( #108, #161 ) ;
#159 = APPROVAL_ROLE ( '' ) ;
#160 = EDGE_CURVE ( 'NONE', #29, #29, #135, .T. ) ;
#161 = ORGANIZATION ( 'UNSPECIFIED', 'UNSPECIFIED', '' ) ;
#162 = EDGE_CURVE ( 'NONE', #47, #47, #31, .T. ) ;
#163 = APPLICATION_CONTEXT ( 'configuration controlled 3d designs of mechanical parts and assemblies' ) ;
#164 = ORIENTED_EDGE ( 'NONE', *, *, #160, .T. ) ;
#165 = CARTESIAN_POINT ( 'NONE',  ( 1.745740669421565889E-15, -7.228014483236693351E-17, 0.4999999999999997780 ) ) ;
#166 = CIRCLE ( 'NONE', #89, 0.2500000000000000000 ) ;
#167 = PERSON_AND_ORGANIZATION ( #108, #161 ) ;
#168 = DIRECTION ( 'NONE',  ( 4.275831445896959482E-31, 1.000000000000000000, 1.224646799147353207E-16 ) ) ;
#169 = DIRECTION ( 'NONE',  ( 4.275831445896958607E-31, 1.000000000000000000, 1.224646799147353207E-16 ) ) ;
#170 = ADVANCED_FACE ( 'NONE', ( #79, #119 ), #178, .T. ) ;
#171 = CARTESIAN_POINT ( 'NONE',  ( 1.316288464743861212E-13, 1.499999999999995337, 37.69999999999999574 ) ) ;
#172 = LOCAL_TIME ( 9, 48, 51.00000000000000000, #192 ) ;
#173 =( LENGTH_UNIT ( ) NAMED_UNIT ( * ) SI_UNIT ( .MILLI., .METRE. ) );
#174 = PERSON_AND_ORGANIZATION ( #108, #161 ) ;
#175 = APPROVAL_DATE_TIME ( #91, #144 ) ;
#176 = APPROVAL_ROLE ( '' ) ;
#177 = SECURITY_CLASSIFICATION_LEVEL ( 'unclassified' ) ;
#178 = CONICAL_SURFACE ( 'NONE', #113, 1.499999999999999778, 0.7853981633974453924 ) ;
#179 = CC_DESIGN_PERSON_AND_ORGANIZATION_ASSIGNMENT ( #17, #142, ( #207 ) ) ;
#180 = EDGE_LOOP ( 'NONE', ( #214 ) ) ;
#181 = CC_DESIGN_APPROVAL ( #102, ( #207 ) ) ;
#182 = EDGE_LOOP ( 'NONE', ( #196 ) ) ;
#183 = PLANE ( 'NONE',  #197 ) ;
#184 = PERSON_AND_ORGANIZATION_ROLE ( 'design_owner' ) ;
#185 = DIRECTION ( 'NONE',  ( 3.491481338843133355E-15, -0.0000000000000000000, 1.000000000000000000 ) ) ;
#186 = CARTESIAN_POINT ( 'NONE',  ( 0.2500000000000000000, 0.0000000000000000000, -1.240264374454989375E-15 ) ) ;
#187 = CC_DESIGN_PERSON_AND_ORGANIZATION_ASSIGNMENT ( #3, #4, ( #128 ) ) ;
#188 = PLANE ( 'NONE',  #109 ) ;
#189 = LOCAL_TIME ( 9, 48, 51.00000000000000000, #94 ) ;
#190 = PERSON_AND_ORGANIZATION ( #108, #161 ) ;
#191 = CC_DESIGN_APPROVAL ( #144, ( #128 ) ) ;
#192 = COORDINATED_UNIVERSAL_TIME_OFFSET ( 1, 0, .AHEAD. ) ;
#193 = DATE_TIME_ROLE ( 'classification_date' ) ;
#194 = EDGE_LOOP ( 'NONE', ( #98 ) ) ;
#195 = DIRECTION ( 'NONE',  ( -3.491481338843133355E-15, 1.224646799147353207E-16, -1.000000000000000000 ) ) ;
#196 = ORIENTED_EDGE ( 'NONE', *, *, #198, .F. ) ;
#197 = AXIS2_PLACEMENT_3D ( 'NONE', #24, #150, #78 ) ;
#198 = EDGE_CURVE ( 'NONE', #27, #27, #68, .T. ) ;
#199 = PLANE ( 'NONE',  #220 ) ;
#200 = DIRECTION ( 'NONE',  ( 1.000000000000000000, 0.0000000000000000000, -3.491481338843133750E-15 ) ) ;
#201 = FACE_OUTER_BOUND ( 'NONE', #180, .T. ) ;
#202 = FACE_OUTER_BOUND ( 'NONE', #182, .T. ) ;
#203 = AXIS2_PLACEMENT_3D ( 'NONE', #66, #49, #28 ) ;
#204 = DIRECTION ( 'NONE',  ( -3.491481338843133355E-15, 1.224646799147353207E-16, -1.000000000000000000 ) ) ;
#205 = CARTESIAN_POINT ( 'NONE',  ( 0.2500000000000019429, 0.0000000000000000000, 0.4999999999999981681 ) ) ;
#206 = VERTEX_POINT ( 'NONE', #171 ) ;
#207 = PRODUCT_DEFINITION_FORMATION_WITH_SPECIFIED_SOURCE ( 'ANY', '', #222, .NOT_KNOWN. ) ;
#208 = PERSON_AND_ORGANIZATION_ROLE ( 'classification_officer' ) ;
#209 = APPROVAL_ROLE ( '' ) ;
#210 = ADVANCED_FACE ( 'NONE', ( #217 ), #188, .T. ) ;
#211 = APPLICATION_CONTEXT ( 'configuration controlled 3d designs of mechanical parts and assemblies' ) ;
#212 = EDGE_LOOP ( 'NONE', ( #5 ) ) ;
#213 = APPROVAL_PERSON_ORGANIZATION ( #167, #144, #159 ) ;
#214 = ORIENTED_EDGE ( 'NONE', *, *, #63, .F. ) ;
#215 = DIRECTION ( 'NONE',  ( 1.000000000000000000, 0.0000000000000000000, -3.491481338843133355E-15 ) ) ;
#216 = FACE_OUTER_BOUND ( 'NONE', #146, .T. ) ;
#217 = FACE_OUTER_BOUND ( 'NONE', #36, .T. ) ;
#218 = DIRECTION ( 'NONE',  ( 3.491481338843133355E-15, -1.224646799147353207E-16, 1.000000000000000000 ) ) ;
#219 = CARTESIAN_POINT ( 'NONE',  ( 1.326762908760390423E-13, 8.998558695971077224E-33, 38.00000000000000000 ) ) ;
#220 = AXIS2_PLACEMENT_3D ( 'NONE', #165, #218, #116 ) ;
#221 = CARTESIAN_POINT ( 'NONE',  ( 1.745740669421565889E-15, -7.228014483236693351E-17, 0.4999999999999997780 ) ) ;
#222 = PRODUCT ( '977781', '977781', '', ( #152 ) ) ;
#223 = PERSON_AND_ORGANIZATION ( #108, #161 ) ;
ENDSEC;
END-ISO-10303-21;
