ISO-10303-21;
HEADER;
FILE_DESCRIPTION (( 'STEP AP203' ),
    '1' );
FILE_NAME ('977780.step',
    '2021-11-15T08:48:50',
    ( '' ),
    ( '' ),
    'SwSTEP 2.0',
    'SolidWorks 2019',
    '' );
FILE_SCHEMA (( 'CONFIG_CONTROL_DESIGN' ));
ENDSEC;

DATA;
#1 = FACE_OUTER_BOUND ( 'NONE', #59, .T. ) ;
#2 = ORIENTED_EDGE ( 'NONE', *, *, #106, .T. ) ;
#3 = ADVANCED_FACE ( 'NONE', ( #41, #105 ), #174, .F. ) ;
#4 =( GEOMETRIC_REPRESENTATION_CONTEXT ( 3 ) GLOBAL_UNCERTAINTY_ASSIGNED_CONTEXT ( ( #206 ) ) GLOBAL_UNIT_ASSIGNED_CONTEXT ( ( #186, #156, #35 ) ) REPRESENTATION_CONTEXT ( 'NONE', 'WORKASPACE' ) );
#5 = APPROVAL_STATUS ( 'not_yet_approved' ) ;
#6 = DIRECTION ( 'NONE',  ( 0.0000000000000000000, 1.000000000000000000, 0.0000000000000000000 ) ) ;
#7 = APPROVAL_PERSON_ORGANIZATION ( #134, #91, #116 ) ;
#8 = PERSON_AND_ORGANIZATION ( #102, #61 ) ;
#9 = PERSON_AND_ORGANIZATION_ROLE ( 'design_supplier' ) ;
#10 = CARTESIAN_POINT ( 'NONE',  ( 1.396592535537253342E-15, 0.0000000000000000000, 0.3999999999999999667 ) ) ;
#11 = CC_DESIGN_PERSON_AND_ORGANIZATION_ASSIGNMENT ( #95, #130, ( #77 ) ) ;
#12 = FACE_OUTER_BOUND ( 'NONE', #89, .T. ) ;
#13 = AXIS2_PLACEMENT_3D ( 'NONE', #169, #135, #164 ) ;
#14 = DIRECTION ( 'NONE',  ( 0.0000000000000000000, 1.000000000000000000, 0.0000000000000000000 ) ) ;
#15 = PRODUCT ( '977780', '977780', '', ( #104 ) ) ;
#16 = APPROVAL ( #136, 'UNSPECIFIED' ) ;
#17 = CIRCLE ( 'NONE', #217, 1.499999999999999778 ) ;
#18 = VERTEX_POINT ( 'NONE', #173 ) ;
#19 = DIRECTION ( 'NONE',  ( 0.0000000000000000000, 0.0000000000000000000, 1.000000000000000000 ) ) ;
#20 = CC_DESIGN_PERSON_AND_ORGANIZATION_ASSIGNMENT ( #149, #84, ( #97 ) ) ;
#21 = ORIENTED_EDGE ( 'NONE', *, *, #221, .T. ) ;
#22 = ADVANCED_FACE ( 'NONE', ( #1 ), #69, .T. ) ;
#23 = ORIENTED_EDGE ( 'NONE', *, *, #122, .T. ) ;
#24 = EDGE_LOOP ( 'NONE', ( #21 ) ) ;
#25 = PERSON_AND_ORGANIZATION ( #102, #61 ) ;
#26 = ORIENTED_EDGE ( 'NONE', *, *, #106, .F. ) ;
#27 = PERSON_AND_ORGANIZATION ( #102, #61 ) ;
#28 = COORDINATED_UNIVERSAL_TIME_OFFSET ( 1, 0, .AHEAD. ) ;
#29 = APPROVAL_DATE_TIME ( #82, #91 ) ;
#30 = PRODUCT_RELATED_PRODUCT_CATEGORY ( 'detail', '', ( #15 ) ) ;
#31 = CARTESIAN_POINT ( 'NONE',  ( 0.2000000000000019262, 0.0000000000000000000, 0.3999999999999983014 ) ) ;
#32 = DIRECTION ( 'NONE',  ( -3.491481338843133355E-15, 1.224646799147353207E-16, -1.000000000000000000 ) ) ;
#33 = AXIS2_PLACEMENT_3D ( 'NONE', #154, #139, #121 ) ;
#34 = LOCAL_TIME ( 9, 48, 50.00000000000000000, #28 ) ;
#35 =( NAMED_UNIT ( * ) SI_UNIT ( $, .STERADIAN. ) SOLID_ANGLE_UNIT ( ) );
#36 = DIRECTION ( 'NONE',  ( 0.0000000000000000000, 1.000000000000000000, 0.0000000000000000000 ) ) ;
#37 = ADVANCED_BREP_SHAPE_REPRESENTATION ( '977780', ( #57, #58, #196 ), #4 ) ;
#38 = CARTESIAN_POINT ( 'NONE',  ( 0.2000000000000019262, 0.0000000000000000000, 0.3999999999999983014 ) ) ;
#39 = CARTESIAN_POINT ( 'NONE',  ( 1.316288464743861212E-13, -4.616918432785521081E-15, 37.69999999999999574 ) ) ;
#40 = ADVANCED_FACE ( 'NONE', ( #152 ), #138, .T. ) ;
#41 = FACE_OUTER_BOUND ( 'NONE', #131, .T. ) ;
#42 = APPROVAL_DATE_TIME ( #198, #16 ) ;
#43 = ORIENTED_EDGE ( 'NONE', *, *, #221, .F. ) ;
#44 = AXIS2_PLACEMENT_3D ( 'NONE', #79, #81, #83 ) ;
#45 = CALENDAR_DATE ( 2021, 15, 11 ) ;
#46 = CARTESIAN_POINT ( 'NONE',  ( 1.326762908760390423E-13, -4.653657836759941941E-15, 38.00000000000000000 ) ) ;
#47 = PERSON_AND_ORGANIZATION ( #102, #61 ) ;
#48 = PERSON_AND_ORGANIZATION ( #102, #61 ) ;
#49 = DIRECTION ( 'NONE',  ( -3.491481338843133355E-15, 1.224646799147353207E-16, -1.000000000000000000 ) ) ;
#50 = CONICAL_SURFACE ( 'NONE', #172, 1.499999999999999778, 0.7853981633974453924 ) ;
#51 = CARTESIAN_POINT ( 'NONE',  ( 0.2000000000000000944, 0.0000000000000000000, -1.065690307512832707E-15 ) ) ;
#52 = PRODUCT_DEFINITION_SHAPE ( 'NONE', 'NONE',  #77 ) ;
#53 = FACE_OUTER_BOUND ( 'NONE', #147, .T. ) ;
#54 = DIRECTION ( 'NONE',  ( -4.275831445896958607E-31, -1.000000000000000000, -1.224646799147353207E-16 ) ) ;
#55 = CLOSED_SHELL ( 'NONE', ( #40, #163, #22 ) ) ;
#56 = APPLICATION_PROTOCOL_DEFINITION ( 'international standard', 'config_control_design', 1994, #177 ) ;
#57 = MANIFOLD_SOLID_BREP ( 'Corps-Déplacer/Copier1[1]', #120 ) ;
#58 = MANIFOLD_SOLID_BREP ( 'Corps-Déplacer/Copier1[2]', #55 ) ;
#59 = EDGE_LOOP ( 'NONE', ( #26 ) ) ;
#60 = CIRCLE ( 'NONE', #183, 1.500000000000000000 ) ;
#61 = ORGANIZATION ( 'UNSPECIFIED', 'UNSPECIFIED', '' ) ;
#62 = COORDINATED_UNIVERSAL_TIME_OFFSET ( 1, 0, .AHEAD. ) ;
#63 = EDGE_LOOP ( 'NONE', ( #90 ) ) ;
#64 = CC_DESIGN_PERSON_AND_ORGANIZATION_ASSIGNMENT ( #25, #178, ( #15 ) ) ;
#65 = DATE_AND_TIME ( #203, #171 ) ;
#66 = SECURITY_CLASSIFICATION ( '', '', #168 ) ;
#67 = DATE_TIME_ROLE ( 'creation_date' ) ;
#68 = CALENDAR_DATE ( 2021, 15, 11 ) ;
#69 = PLANE ( 'NONE',  #13 ) ;
#70 = DIRECTION ( 'NONE',  ( 3.491481338843133355E-15, -0.0000000000000000000, 1.000000000000000000 ) ) ;
#71 = VERTEX_POINT ( 'NONE', #189 ) ;
#72 = FACE_OUTER_BOUND ( 'NONE', #24, .T. ) ;
#73 = CC_DESIGN_APPROVAL ( #16, ( #77 ) ) ;
#74 = CARTESIAN_POINT ( 'NONE',  ( 1.326762908760390423E-13, 8.998558695971077224E-33, 38.00000000000000000 ) ) ;
#75 = EDGE_CURVE ( 'NONE', #99, #99, #128, .T. ) ;
#76 = AXIS2_PLACEMENT_3D ( 'NONE', #182, #204, #201 ) ;
#77 = PRODUCT_DEFINITION ( 'UNKNOWN', '', #97, #117 ) ;
#78 = CARTESIAN_POINT ( 'NONE',  ( -1.282749433769087582E-30, 0.0000000000000000000, -3.673940397442059375E-16 ) ) ;
#79 = CARTESIAN_POINT ( 'NONE',  ( 1.396592535537252553E-15, -5.782411586589353694E-17, 0.3999999999999997446 ) ) ;
#80 = PERSON_AND_ORGANIZATION_ROLE ( 'classification_officer' ) ;
#81 = DIRECTION ( 'NONE',  ( 3.491481338843133355E-15, -1.224646799147353207E-16, 1.000000000000000000 ) ) ;
#82 = DATE_AND_TIME ( #202, #145 ) ;
#83 = DIRECTION ( 'NONE',  ( -4.275831445896958607E-31, -1.000000000000000000, -1.224646799147353207E-16 ) ) ;
#84 = PERSON_AND_ORGANIZATION_ROLE ( 'creator' ) ;
#85 = DIRECTION ( 'NONE',  ( 1.000000000000000000, 0.0000000000000000000, -3.491481338843133355E-15 ) ) ;
#86 = CARTESIAN_POINT ( 'NONE',  ( 1.326762908760390423E-13, 1.199999999999995293, 38.00000000000000000 ) ) ;
#87 = DIRECTION ( 'NONE',  ( 3.491481338843133355E-15, -0.0000000000000000000, 1.000000000000000000 ) ) ;
#88 = EDGE_CURVE ( 'NONE', #155, #155, #200, .T. ) ;
#89 = EDGE_LOOP ( 'NONE', ( #199 ) ) ;
#90 = ORIENTED_EDGE ( 'NONE', *, *, #191, .T. ) ;
#91 = APPROVAL ( #94, 'UNSPECIFIED' ) ;
#92 = ORIENTED_EDGE ( 'NONE', *, *, #75, .F. ) ;
#93 = EDGE_LOOP ( 'NONE', ( #92 ) ) ;
#94 = APPROVAL_STATUS ( 'not_yet_approved' ) ;
#95 = PERSON_AND_ORGANIZATION ( #102, #61 ) ;
#96 = DIRECTION ( 'NONE',  ( 1.000000000000000000, 0.0000000000000000000, -3.491481338843132566E-15 ) ) ;
#97 = PRODUCT_DEFINITION_FORMATION_WITH_SPECIFIED_SOURCE ( 'ANY', '', #15, .NOT_KNOWN. ) ;
#98 = DIRECTION ( 'NONE',  ( 3.491481338843133355E-15, -0.0000000000000000000, 1.000000000000000000 ) ) ;
#99 = VERTEX_POINT ( 'NONE', #31 ) ;
#100 = AXIS2_PLACEMENT_3D ( 'NONE', #142, #197, #54 ) ;
#101 = VERTEX_POINT ( 'NONE', #51 ) ;
#102 = PERSON ( 'UNSPECIFIED', 'UNSPECIFIED', 'UNSPECIFIED', ('UNSPECIFIED'), ('UNSPECIFIED'), ('UNSPECIFIED') ) ;
#103 = DIRECTION ( 'NONE',  ( -1.000000000000000000, 0.0000000000000000000, 3.469446951953614189E-15 ) ) ;
#104 = MECHANICAL_CONTEXT ( 'NONE', #177, 'mechanical' ) ;
#105 = FACE_OUTER_BOUND ( 'NONE', #63, .T. ) ;
#106 = EDGE_CURVE ( 'NONE', #101, #101, #223, .T. ) ;
#107 = APPROVAL_PERSON_ORGANIZATION ( #47, #146, #148 ) ;
#108 = ORIENTED_EDGE ( 'NONE', *, *, #75, .T. ) ;
#109 = CC_DESIGN_PERSON_AND_ORGANIZATION_ASSIGNMENT ( #27, #80, ( #66 ) ) ;
#110 = EDGE_LOOP ( 'NONE', ( #23 ) ) ;
#111 = AXIS2_PLACEMENT_3D ( 'NONE', #10, #98, #162 ) ;
#112 = LOCAL_TIME ( 9, 48, 50.00000000000000000, #151 ) ;
#113 = COORDINATED_UNIVERSAL_TIME_OFFSET ( 1, 0, .AHEAD. ) ;
#114 = DATE_AND_TIME ( #68, #112 ) ;
#115 = AXIS2_PLACEMENT_3D ( 'NONE', #78, #214, #96 ) ;
#116 = APPROVAL_ROLE ( '' ) ;
#117 = DESIGN_CONTEXT ( 'detailed design', #125, 'design' ) ;
#118 = CARTESIAN_POINT ( 'NONE',  ( 0.0000000000000000000, 0.0000000000000000000, 0.0000000000000000000 ) ) ;
#119 = FACE_OUTER_BOUND ( 'NONE', #194, .T. ) ;
#120 = CLOSED_SHELL ( 'NONE', ( #144, #218, #158, #3, #129 ) ) ;
#121 = DIRECTION ( 'NONE',  ( 4.275831445896959482E-31, 1.000000000000000000, 1.224646799147353207E-16 ) ) ;
#122 = EDGE_CURVE ( 'NONE', #18, #18, #17, .T. ) ;
#123 = FACE_OUTER_BOUND ( 'NONE', #110, .T. ) ;
#124 = CYLINDRICAL_SURFACE ( 'NONE', #187, 0.2000000000000003164 ) ;
#125 = APPLICATION_CONTEXT ( 'configuration controlled 3d designs of mechanical parts and assemblies' ) ;
#126 = CC_DESIGN_DATE_AND_TIME_ASSIGNMENT ( #216, #184, ( #66 ) ) ;
#127 = ORIENTED_EDGE ( 'NONE', *, *, #122, .F. ) ;
#128 = CIRCLE ( 'NONE', #76, 0.2000000000000005107 ) ;
#129 = ADVANCED_FACE ( 'NONE', ( #119 ), #193, .F. ) ;
#130 = PERSON_AND_ORGANIZATION_ROLE ( 'creator' ) ;
#131 = EDGE_LOOP ( 'NONE', ( #43 ) ) ;
#132 = COORDINATED_UNIVERSAL_TIME_OFFSET ( 1, 0, .AHEAD. ) ;
#133 = AXIS2_PLACEMENT_3D ( 'NONE', #205, #192, #207 ) ;
#134 = PERSON_AND_ORGANIZATION ( #102, #61 ) ;
#135 = DIRECTION ( 'NONE',  ( -3.491481338843133355E-15, 1.224646799147353207E-16, -1.000000000000000000 ) ) ;
#136 = APPROVAL_STATUS ( 'not_yet_approved' ) ;
#137 = CC_DESIGN_APPROVAL ( #91, ( #66 ) ) ;
#138 = PLANE ( 'NONE',  #44 ) ;
#139 = DIRECTION ( 'NONE',  ( -3.491481338843133355E-15, 1.224646799147353207E-16, -1.000000000000000000 ) ) ;
#140 = FACE_BOUND ( 'NONE', #176, .T. ) ;
#141 = DIRECTION ( 'NONE',  ( -3.491481338843133355E-15, 1.224646799147353207E-16, -1.000000000000000000 ) ) ;
#142 = CARTESIAN_POINT ( 'NONE',  ( 1.396592535537252553E-15, -5.782411586589353694E-17, 0.3999999999999997446 ) ) ;
#143 = DIRECTION ( 'NONE',  ( 1.000000000000000000, 0.0000000000000000000, 0.0000000000000000000 ) ) ;
#144 = ADVANCED_FACE ( 'NONE', ( #123, #72 ), #208, .T. ) ;
#145 = LOCAL_TIME ( 9, 48, 50.00000000000000000, #132 ) ;
#146 = APPROVAL ( #5, 'UNSPECIFIED' ) ;
#147 = EDGE_LOOP ( 'NONE', ( #127 ) ) ;
#148 = APPROVAL_ROLE ( '' ) ;
#149 = PERSON_AND_ORGANIZATION ( #102, #61 ) ;
#150 = CC_DESIGN_DATE_AND_TIME_ASSIGNMENT ( #65, #67, ( #77 ) ) ;
#151 = COORDINATED_UNIVERSAL_TIME_OFFSET ( 1, 0, .AHEAD. ) ;
#152 = FACE_OUTER_BOUND ( 'NONE', #179, .T. ) ;
#153 = PLANE ( 'NONE',  #160 ) ;
#154 = CARTESIAN_POINT ( 'NONE',  ( 0.0000000000000000000, 0.0000000000000000000, 0.0000000000000000000 ) ) ;
#155 = VERTEX_POINT ( 'NONE', #86 ) ;
#156 =( NAMED_UNIT ( * ) PLANE_ANGLE_UNIT ( ) SI_UNIT ( $, .RADIAN. ) );
#157 = CARTESIAN_POINT ( 'NONE',  ( 0.0000000000000000000, 0.0000000000000000000, 0.0000000000000000000 ) ) ;
#158 = ADVANCED_FACE ( 'NONE', ( #12 ), #153, .F. ) ;
#159 = ORIENTED_EDGE ( 'NONE', *, *, #88, .T. ) ;
#160 = AXIS2_PLACEMENT_3D ( 'NONE', #74, #141, #209 ) ;
#161 = CALENDAR_DATE ( 2021, 15, 11 ) ;
#162 = DIRECTION ( 'NONE',  ( 1.000000000000000000, 0.0000000000000000000, -3.491481338843133750E-15 ) ) ;
#163 = ADVANCED_FACE ( 'NONE', ( #220, #219 ), #124, .T. ) ;
#164 = DIRECTION ( 'NONE',  ( 4.275831445896958607E-31, 1.000000000000000000, 1.224646799147353207E-16 ) ) ;
#165 = SHAPE_DEFINITION_REPRESENTATION ( #52, #37 ) ;
#166 = CARTESIAN_POINT ( 'NONE',  ( 1.316288464743861212E-13, -4.616918432785521081E-15, 37.69999999999999574 ) ) ;
#167 = DIRECTION ( 'NONE',  ( -3.491481338843133355E-15, 1.224646799147353207E-16, -1.000000000000000000 ) ) ;
#168 = SECURITY_CLASSIFICATION_LEVEL ( 'unclassified' ) ;
#169 = CARTESIAN_POINT ( 'NONE',  ( -3.206873584422719393E-31, 1.124819836996393206E-32, -9.184850993605149670E-17 ) ) ;
#170 = VERTEX_POINT ( 'NONE', #38 ) ;
#171 = LOCAL_TIME ( 9, 48, 50.00000000000000000, #113 ) ;
#172 = AXIS2_PLACEMENT_3D ( 'NONE', #39, #32, #14 ) ;
#173 = CARTESIAN_POINT ( 'NONE',  ( 1.316288464743861212E-13, 1.499999999999995337, 37.69999999999999574 ) ) ;
#174 = TOROIDAL_SURFACE ( 'NONE', #111, 8.200000000000001066, 8.000000000000000000 ) ;
#175 = AXIS2_PLACEMENT_3D ( 'NONE', #46, #49, #6 ) ;
#176 = EDGE_LOOP ( 'NONE', ( #159 ) ) ;
#177 = APPLICATION_CONTEXT ( 'configuration controlled 3d designs of mechanical parts and assemblies' ) ;
#178 = PERSON_AND_ORGANIZATION_ROLE ( 'design_owner' ) ;
#179 = EDGE_LOOP ( 'NONE', ( #108 ) ) ;
#180 = APPROVAL_DATE_TIME ( #114, #146 ) ;
#181 = APPLICATION_PROTOCOL_DEFINITION ( 'international standard', 'config_control_design', 1994, #125 ) ;
#182 = CARTESIAN_POINT ( 'NONE',  ( 1.396592535537249792E-15, 0.0000000000000000000, 0.3999999999999989675 ) ) ;
#183 = AXIS2_PLACEMENT_3D ( 'NONE', #190, #87, #103 ) ;
#184 = DATE_TIME_ROLE ( 'classification_date' ) ;
#185 = CC_DESIGN_APPROVAL ( #146, ( #97 ) ) ;
#186 =( LENGTH_UNIT ( ) NAMED_UNIT ( * ) SI_UNIT ( .MILLI., .METRE. ) );
#187 = AXIS2_PLACEMENT_3D ( 'NONE', #118, #70, #85 ) ;
#188 = LOCAL_TIME ( 9, 48, 50.00000000000000000, #62 ) ;
#189 = CARTESIAN_POINT ( 'NONE',  ( -1.499999999999983347, 0.0000000000000000000, 4.771498598878881836 ) ) ;
#190 = CARTESIAN_POINT ( 'NONE',  ( 1.665959831630175527E-14, 0.0000000000000000000, 4.771498598878876507 ) ) ;
#191 = EDGE_CURVE ( 'NONE', #170, #170, #195, .T. ) ;
#192 = DIRECTION ( 'NONE',  ( 3.491481338843133355E-15, -0.0000000000000000000, 1.000000000000000000 ) ) ;
#193 = PLANE ( 'NONE',  #100 ) ;
#194 = EDGE_LOOP ( 'NONE', ( #210 ) ) ;
#195 = CIRCLE ( 'NONE', #133, 0.2000000000000005107 ) ;
#196 = AXIS2_PLACEMENT_3D ( 'NONE', #157, #19, #143 ) ;
#197 = DIRECTION ( 'NONE',  ( 3.491481338843133355E-15, -1.224646799147353207E-16, 1.000000000000000000 ) ) ;
#198 = DATE_AND_TIME ( #45, #188 ) ;
#199 = ORIENTED_EDGE ( 'NONE', *, *, #88, .F. ) ;
#200 = CIRCLE ( 'NONE', #175, 1.199999999999999956 ) ;
#201 = DIRECTION ( 'NONE',  ( 1.000000000000000000, 0.0000000000000000000, -3.523657060577880339E-15 ) ) ;
#202 = CALENDAR_DATE ( 2021, 15, 11 ) ;
#203 = CALENDAR_DATE ( 2021, 15, 11 ) ;
#204 = DIRECTION ( 'NONE',  ( 3.491481338843133355E-15, -0.0000000000000000000, 1.000000000000000000 ) ) ;
#205 = CARTESIAN_POINT ( 'NONE',  ( 1.396592535537249792E-15, 0.0000000000000000000, 0.3999999999999989675 ) ) ;
#206 = UNCERTAINTY_MEASURE_WITH_UNIT (LENGTH_MEASURE( 1.000000000000000082E-05 ), #186, 'distance_accuracy_value', 'NONE');
#207 = DIRECTION ( 'NONE',  ( 1.000000000000000000, 0.0000000000000000000, -3.523657060577880339E-15 ) ) ;
#208 = CYLINDRICAL_SURFACE ( 'NONE', #33, 1.500000000000000000 ) ;
#209 = DIRECTION ( 'NONE',  ( 4.275831445896958607E-31, 1.000000000000000000, 1.224646799147353207E-16 ) ) ;
#210 = ORIENTED_EDGE ( 'NONE', *, *, #191, .F. ) ;
#211 = CC_DESIGN_PERSON_AND_ORGANIZATION_ASSIGNMENT ( #8, #9, ( #97 ) ) ;
#212 = EDGE_LOOP ( 'NONE', ( #2 ) ) ;
#213 = APPROVAL_PERSON_ORGANIZATION ( #48, #16, #215 ) ;
#214 = DIRECTION ( 'NONE',  ( 3.491481338843133355E-15, -0.0000000000000000000, 1.000000000000000000 ) ) ;
#215 = APPROVAL_ROLE ( '' ) ;
#216 = DATE_AND_TIME ( #161, #34 ) ;
#217 = AXIS2_PLACEMENT_3D ( 'NONE', #166, #167, #36 ) ;
#218 = ADVANCED_FACE ( 'NONE', ( #140, #53 ), #50, .T. ) ;
#219 = FACE_OUTER_BOUND ( 'NONE', #93, .T. ) ;
#220 = FACE_OUTER_BOUND ( 'NONE', #212, .T. ) ;
#221 = EDGE_CURVE ( 'NONE', #71, #71, #60, .T. ) ;
#222 = CC_DESIGN_SECURITY_CLASSIFICATION ( #66, ( #97 ) ) ;
#223 = CIRCLE ( 'NONE', #115, 0.2000000000000000944 ) ;
ENDSEC;
END-ISO-10303-21;
