ISO-10303-21;
HEADER;
FILE_DESCRIPTION (( 'STEP AP203' ),
    '1' );
FILE_NAME ('977779.step',
    '2021-11-15T08:48:50',
    ( '' ),
    ( '' ),
    'SwSTEP 2.0',
    'SolidWorks 2019',
    '' );
FILE_SCHEMA (( 'CONFIG_CONTROL_DESIGN' ));
ENDSEC;

DATA;
#1 = DIRECTION ( 'NONE',  ( 1.000000000000000000, 0.0000000000000000000, -3.614007241618327866E-15 ) ) ;
#2 = DATE_AND_TIME ( #106, #16 ) ;
#3 = APPROVAL_STATUS ( 'not_yet_approved' ) ;
#4 = CALENDAR_DATE ( 2021, 15, 11 ) ;
#5 = PERSON_AND_ORGANIZATION ( #19, #208 ) ;
#6 = AXIS2_PLACEMENT_3D ( 'NONE', #120, #207, #122 ) ;
#7 = CIRCLE ( 'NONE', #84, 0.1499999999999999667 ) ;
#8 = ORIENTED_EDGE ( 'NONE', *, *, #174, .F. ) ;
#9 = FACE_OUTER_BOUND ( 'NONE', #27, .T. ) ;
#10 = EDGE_LOOP ( 'NONE', ( #42 ) ) ;
#11 = CARTESIAN_POINT ( 'NONE',  ( 1.326762908760390423E-13, -4.653657836759941941E-15, 38.00000000000000000 ) ) ;
#12 = PRODUCT_DEFINITION_SHAPE ( 'NONE', 'NONE',  #159 ) ;
#13 = DIRECTION ( 'NONE',  ( -3.491481338843133355E-15, 1.224646799147353207E-16, -1.000000000000000000 ) ) ;
#14 = DIRECTION ( 'NONE',  ( 4.275831445896958607E-31, 1.000000000000000000, 1.224646799147353207E-16 ) ) ;
#15 = DIRECTION ( 'NONE',  ( 3.491481338843133355E-15, -0.0000000000000000000, 1.000000000000000000 ) ) ;
#16 = LOCAL_TIME ( 9, 48, 50.00000000000000000, #140 ) ;
#17 = DATE_AND_TIME ( #177, #195 ) ;
#18 = APPROVAL_STATUS ( 'not_yet_approved' ) ;
#19 = PERSON ( 'UNSPECIFIED', 'UNSPECIFIED', 'UNSPECIFIED', ('UNSPECIFIED'), ('UNSPECIFIED'), ('UNSPECIFIED') ) ;
#20 = APPROVAL_DATE_TIME ( #17, #185 ) ;
#21 = CLOSED_SHELL ( 'NONE', ( #128, #53, #198, #104, #134 ) ) ;
#22 = COORDINATED_UNIVERSAL_TIME_OFFSET ( 1, 0, .AHEAD. ) ;
#23 = CC_DESIGN_PERSON_AND_ORGANIZATION_ASSIGNMENT ( #76, #108, ( #99 ) ) ;
#24 = CALENDAR_DATE ( 2021, 15, 11 ) ;
#25 = ORIENTED_EDGE ( 'NONE', *, *, #179, .T. ) ;
#26 = CC_DESIGN_PERSON_AND_ORGANIZATION_ASSIGNMENT ( #192, #193, ( #96 ) ) ;
#27 = EDGE_LOOP ( 'NONE', ( #25 ) ) ;
#28 = FACE_OUTER_BOUND ( 'NONE', #178, .T. ) ;
#29 = EDGE_CURVE ( 'NONE', #182, #182, #7, .T. ) ;
#30 = VERTEX_POINT ( 'NONE', #222 ) ;
#31 = EDGE_LOOP ( 'NONE', ( #85 ) ) ;
#32 = FACE_OUTER_BOUND ( 'NONE', #110, .T. ) ;
#33 = CYLINDRICAL_SURFACE ( 'NONE', #92, 0.1500000000000003830 ) ;
#34 = CARTESIAN_POINT ( 'NONE',  ( -1.499999999999983569, 0.0000000000000000000, 4.747190124112081300 ) ) ;
#35 = SECURITY_CLASSIFICATION_LEVEL ( 'unclassified' ) ;
#36 = AXIS2_PLACEMENT_3D ( 'NONE', #102, #70, #203 ) ;
#37 = SHAPE_DEFINITION_REPRESENTATION ( #12, #214 ) ;
#38 = PERSON_AND_ORGANIZATION ( #19, #208 ) ;
#39 = APPROVAL_DATE_TIME ( #91, #124 ) ;
#40 = LOCAL_TIME ( 9, 48, 50.00000000000000000, #127 ) ;
#41 = CONICAL_SURFACE ( 'NONE', #136, 1.499999999999999778, 0.7853981633974453924 ) ;
#42 = ORIENTED_EDGE ( 'NONE', *, *, #29, .F. ) ;
#43 = MANIFOLD_SOLID_BREP ( 'Corps-Déplacer/Copier1[2]', #223 ) ;
#44 = DIRECTION ( 'NONE',  ( 3.491481338843133355E-15, -0.0000000000000000000, 1.000000000000000000 ) ) ;
#45 = CARTESIAN_POINT ( 'NONE',  ( 0.1500000000000018818, 0.0000000000000000000, 0.2999999999999976574 ) ) ;
#46 = CIRCLE ( 'NONE', #175, 1.499999999999999778 ) ;
#47 = CARTESIAN_POINT ( 'NONE',  ( 0.0000000000000000000, 0.0000000000000000000, 0.0000000000000000000 ) ) ;
#48 = CARTESIAN_POINT ( 'NONE',  ( 1.047444401652933696E-15, 0.0000000000000000000, 0.2999999999999981570 ) ) ;
#49 = DATE_AND_TIME ( #4, #40 ) ;
#50 = APPROVAL_PERSON_ORGANIZATION ( #38, #185, #190 ) ;
#51 = MANIFOLD_SOLID_BREP ( 'Corps-Déplacer/Copier1[1]', #21 ) ;
#52 = DATE_TIME_ROLE ( 'classification_date' ) ;
#53 = ADVANCED_FACE ( 'NONE', ( #61, #181 ), #41, .T. ) ;
#54 = APPROVAL_DATE_TIME ( #72, #162 ) ;
#55 = AXIS2_PLACEMENT_3D ( 'NONE', #220, #83, #1 ) ;
#56 = ORIENTED_EDGE ( 'NONE', *, *, #172, .F. ) ;
#57 = APPLICATION_CONTEXT ( 'configuration controlled 3d designs of mechanical parts and assemblies' ) ;
#58 = LOCAL_TIME ( 9, 48, 50.00000000000000000, #22 ) ;
#59 = EDGE_LOOP ( 'NONE', ( #79 ) ) ;
#60 = DESIGN_CONTEXT ( 'detailed design', #103, 'design' ) ;
#61 = FACE_BOUND ( 'NONE', #129, .T. ) ;
#62 = CIRCLE ( 'NONE', #36, 1.500000000000000000 ) ;
#63 = DIRECTION ( 'NONE',  ( 3.491481338843133355E-15, -0.0000000000000000000, 1.000000000000000000 ) ) ;
#64 =( NAMED_UNIT ( * ) SI_UNIT ( $, .STERADIAN. ) SOLID_ANGLE_UNIT ( ) );
#65 = CC_DESIGN_DATE_AND_TIME_ASSIGNMENT ( #49, #173, ( #159 ) ) ;
#66 = PLANE ( 'NONE',  #154 ) ;
#67 = DIRECTION ( 'NONE',  ( 0.0000000000000000000, 1.000000000000000000, 0.0000000000000000000 ) ) ;
#68 = FACE_OUTER_BOUND ( 'NONE', #216, .T. ) ;
#69 =( GEOMETRIC_REPRESENTATION_CONTEXT ( 3 ) GLOBAL_UNCERTAINTY_ASSIGNED_CONTEXT ( ( #113 ) ) GLOBAL_UNIT_ASSIGNED_CONTEXT ( ( #119, #149, #64 ) ) REPRESENTATION_CONTEXT ( 'NONE', 'WORKASPACE' ) );
#70 = DIRECTION ( 'NONE',  ( 3.491481338843133355E-15, -0.0000000000000000000, 1.000000000000000000 ) ) ;
#71 = PERSON_AND_ORGANIZATION ( #19, #208 ) ;
#72 = DATE_AND_TIME ( #24, #167 ) ;
#73 = AXIS2_PLACEMENT_3D ( 'NONE', #219, #44, #116 ) ;
#74 = PERSON_AND_ORGANIZATION_ROLE ( 'design_supplier' ) ;
#75 = CALENDAR_DATE ( 2021, 15, 11 ) ;
#76 = PERSON_AND_ORGANIZATION ( #19, #208 ) ;
#77 = CC_DESIGN_APPROVAL ( #124, ( #96 ) ) ;
#78 = CC_DESIGN_PERSON_AND_ORGANIZATION_ASSIGNMENT ( #93, #74, ( #191 ) ) ;
#79 = ORIENTED_EDGE ( 'NONE', *, *, #179, .F. ) ;
#80 = AXIS2_PLACEMENT_3D ( 'NONE', #204, #184, #14 ) ;
#81 = ADVANCED_FACE ( 'NONE', ( #28 ), #200, .T. ) ;
#82 = FACE_OUTER_BOUND ( 'NONE', #111, .T. ) ;
#83 = DIRECTION ( 'NONE',  ( 3.491481338843133355E-15, -0.0000000000000000000, 1.000000000000000000 ) ) ;
#84 = AXIS2_PLACEMENT_3D ( 'NONE', #217, #63, #150 ) ;
#85 = ORIENTED_EDGE ( 'NONE', *, *, #141, .F. ) ;
#86 = CARTESIAN_POINT ( 'NONE',  ( 0.0000000000000000000, 0.0000000000000000000, 0.0000000000000000000 ) ) ;
#87 = DIRECTION ( 'NONE',  ( 0.0000000000000000000, 1.000000000000000000, 0.0000000000000000000 ) ) ;
#88 = CARTESIAN_POINT ( 'NONE',  ( 0.1499999999999999667, 0.0000000000000000000, -8.911162405706758422E-16 ) ) ;
#89 = VERTEX_POINT ( 'NONE', #34 ) ;
#90 = APPLICATION_PROTOCOL_DEFINITION ( 'international standard', 'config_control_design', 1994, #103 ) ;
#91 = DATE_AND_TIME ( #75, #58 ) ;
#92 = AXIS2_PLACEMENT_3D ( 'NONE', #47, #168, #131 ) ;
#93 = PERSON_AND_ORGANIZATION ( #19, #208 ) ;
#94 = CC_DESIGN_SECURITY_CLASSIFICATION ( #96, ( #191 ) ) ;
#95 = TOROIDAL_SURFACE ( 'NONE', #73, 8.150000000000000355, 8.000000000000000000 ) ;
#96 = SECURITY_CLASSIFICATION ( '', '', #35 ) ;
#97 = CARTESIAN_POINT ( 'NONE',  ( 1.047444401652939218E-15, 1.124819836996393616E-32, 0.2999999999999998224 ) ) ;
#98 = FACE_OUTER_BOUND ( 'NONE', #115, .T. ) ;
#99 = PRODUCT ( '977779', '977779', '', ( #211 ) ) ;
#100 = DIRECTION ( 'NONE',  ( -3.491481338843133355E-15, 1.224646799147353207E-16, -1.000000000000000000 ) ) ;
#101 = DIRECTION ( 'NONE',  ( -3.491481338843133355E-15, 1.224646799147353207E-16, -1.000000000000000000 ) ) ;
#102 = CARTESIAN_POINT ( 'NONE',  ( 1.657472573027773131E-14, 0.0000000000000000000, 4.747190124112075971 ) ) ;
#103 = APPLICATION_CONTEXT ( 'configuration controlled 3d designs of mechanical parts and assemblies' ) ;
#104 = ADVANCED_FACE ( 'NONE', ( #82, #9 ), #95, .F. ) ;
#105 = PLANE ( 'NONE',  #80 ) ;
#106 = CALENDAR_DATE ( 2021, 15, 11 ) ;
#107 = CC_DESIGN_PERSON_AND_ORGANIZATION_ASSIGNMENT ( #156, #176, ( #191 ) ) ;
#108 = PERSON_AND_ORGANIZATION_ROLE ( 'design_owner' ) ;
#109 = AXIS2_PLACEMENT_3D ( 'NONE', #171, #210, #157 ) ;
#110 = EDGE_LOOP ( 'NONE', ( #183 ) ) ;
#111 = EDGE_LOOP ( 'NONE', ( #56 ) ) ;
#112 = CC_DESIGN_APPROVAL ( #185, ( #191 ) ) ;
#113 = UNCERTAINTY_MEASURE_WITH_UNIT (LENGTH_MEASURE( 1.000000000000000082E-05 ), #119, 'distance_accuracy_value', 'NONE');
#114 = CC_DESIGN_DATE_AND_TIME_ASSIGNMENT ( #2, #52, ( #96 ) ) ;
#115 = EDGE_LOOP ( 'NONE', ( #132 ) ) ;
#116 = DIRECTION ( 'NONE',  ( 1.000000000000000000, 0.0000000000000000000, -3.491481338843133750E-15 ) ) ;
#117 = PLANE ( 'NONE',  #6 ) ;
#118 = DIRECTION ( 'NONE',  ( -4.275831445896958607E-31, -1.000000000000000000, -1.224646799147353207E-16 ) ) ;
#119 =( LENGTH_UNIT ( ) NAMED_UNIT ( * ) SI_UNIT ( .MILLI., .METRE. ) );
#120 = CARTESIAN_POINT ( 'NONE',  ( 1.047444401652939218E-15, 1.124819836996393616E-32, 0.2999999999999998224 ) ) ;
#121 = ADVANCED_FACE ( 'NONE', ( #148 ), #66, .T. ) ;
#122 = DIRECTION ( 'NONE',  ( -4.275831445896958607E-31, -1.000000000000000000, -1.224646799147353207E-16 ) ) ;
#123 = APPLICATION_PROTOCOL_DEFINITION ( 'international standard', 'config_control_design', 1994, #57 ) ;
#124 = APPROVAL ( #18, 'UNSPECIFIED' ) ;
#125 = COORDINATED_UNIVERSAL_TIME_OFFSET ( 1, 0, .AHEAD. ) ;
#126 = AXIS2_PLACEMENT_3D ( 'NONE', #48, #15, #151 ) ;
#127 = COORDINATED_UNIVERSAL_TIME_OFFSET ( 1, 0, .AHEAD. ) ;
#128 = ADVANCED_FACE ( 'NONE', ( #68, #205 ), #169, .T. ) ;
#129 = EDGE_LOOP ( 'NONE', ( #196 ) ) ;
#130 = DIRECTION ( 'NONE',  ( 0.0000000000000000000, 1.000000000000000000, 0.0000000000000000000 ) ) ;
#131 = DIRECTION ( 'NONE',  ( 1.000000000000000000, 0.0000000000000000000, -3.491481338843133750E-15 ) ) ;
#132 = ORIENTED_EDGE ( 'NONE', *, *, #29, .T. ) ;
#133 = VERTEX_POINT ( 'NONE', #201 ) ;
#134 = ADVANCED_FACE ( 'NONE', ( #164 ), #117, .F. ) ;
#135 = DIRECTION ( 'NONE',  ( -3.491481338843133355E-15, 1.224646799147353207E-16, -1.000000000000000000 ) ) ;
#136 = AXIS2_PLACEMENT_3D ( 'NONE', #202, #100, #130 ) ;
#137 = DIRECTION ( 'NONE',  ( 4.275831445896959482E-31, 1.000000000000000000, 1.224646799147353207E-16 ) ) ;
#138 = APPROVAL_ROLE ( '' ) ;
#139 = CIRCLE ( 'NONE', #55, 0.1500000000000008271 ) ;
#140 = COORDINATED_UNIVERSAL_TIME_OFFSET ( 1, 0, .AHEAD. ) ;
#141 = EDGE_CURVE ( 'NONE', #189, #189, #139, .T. ) ;
#142 = ADVANCED_FACE ( 'NONE', ( #98, #188 ), #33, .T. ) ;
#143 = AXIS2_PLACEMENT_3D ( 'NONE', #97, #165, #118 ) ;
#144 = PERSON_AND_ORGANIZATION ( #19, #208 ) ;
#145 = CC_DESIGN_PERSON_AND_ORGANIZATION_ASSIGNMENT ( #5, #213, ( #159 ) ) ;
#146 = PRODUCT_RELATED_PRODUCT_CATEGORY ( 'detail', '', ( #99 ) ) ;
#147 = ORIENTED_EDGE ( 'NONE', *, *, #141, .T. ) ;
#148 = FACE_OUTER_BOUND ( 'NONE', #10, .T. ) ;
#149 =( NAMED_UNIT ( * ) PLANE_ANGLE_UNIT ( ) SI_UNIT ( $, .RADIAN. ) );
#150 = DIRECTION ( 'NONE',  ( 1.000000000000000000, 0.0000000000000000000, -3.491481338843133355E-15 ) ) ;
#151 = DIRECTION ( 'NONE',  ( 1.000000000000000000, 0.0000000000000000000, -3.614007241618327866E-15 ) ) ;
#152 = VERTEX_POINT ( 'NONE', #45 ) ;
#153 = CARTESIAN_POINT ( 'NONE',  ( 0.1500000000000018818, 0.0000000000000000000, 0.2999999999999976574 ) ) ;
#154 = AXIS2_PLACEMENT_3D ( 'NONE', #155, #101, #166 ) ;
#155 = CARTESIAN_POINT ( 'NONE',  ( -3.206873584422719393E-31, 1.124819836996393206E-32, -9.184850993605149670E-17 ) ) ;
#156 = PERSON_AND_ORGANIZATION ( #19, #208 ) ;
#157 = DIRECTION ( 'NONE',  ( 1.000000000000000000, 0.0000000000000000000, 0.0000000000000000000 ) ) ;
#158 = APPROVAL_ROLE ( '' ) ;
#159 = PRODUCT_DEFINITION ( 'UNKNOWN', '', #191, #60 ) ;
#160 = COORDINATED_UNIVERSAL_TIME_OFFSET ( 1, 0, .AHEAD. ) ;
#161 = AXIS2_PLACEMENT_3D ( 'NONE', #11, #135, #67 ) ;
#162 = APPROVAL ( #209, 'UNSPECIFIED' ) ;
#163 = ORIENTED_EDGE ( 'NONE', *, *, #172, .T. ) ;
#164 = FACE_OUTER_BOUND ( 'NONE', #59, .T. ) ;
#165 = DIRECTION ( 'NONE',  ( 3.491481338843133355E-15, -1.224646799147353207E-16, 1.000000000000000000 ) ) ;
#166 = DIRECTION ( 'NONE',  ( 4.275831445896958607E-31, 1.000000000000000000, 1.224646799147353207E-16 ) ) ;
#167 = LOCAL_TIME ( 9, 48, 50.00000000000000000, #160 ) ;
#168 = DIRECTION ( 'NONE',  ( 3.491481338843133355E-15, -0.0000000000000000000, 1.000000000000000000 ) ) ;
#169 = CYLINDRICAL_SURFACE ( 'NONE', #218, 1.500000000000000000 ) ;
#170 = APPROVAL_PERSON_ORGANIZATION ( #71, #124, #138 ) ;
#171 = CARTESIAN_POINT ( 'NONE',  ( 0.0000000000000000000, 0.0000000000000000000, 0.0000000000000000000 ) ) ;
#172 = EDGE_CURVE ( 'NONE', #89, #89, #62, .T. ) ;
#173 = DATE_TIME_ROLE ( 'creation_date' ) ;
#174 = EDGE_CURVE ( 'NONE', #133, #133, #46, .T. ) ;
#175 = AXIS2_PLACEMENT_3D ( 'NONE', #221, #187, #87 ) ;
#176 = PERSON_AND_ORGANIZATION_ROLE ( 'creator' ) ;
#177 = CALENDAR_DATE ( 2021, 15, 11 ) ;
#178 = EDGE_LOOP ( 'NONE', ( #147 ) ) ;
#179 = EDGE_CURVE ( 'NONE', #152, #152, #212, .T. ) ;
#180 = APPROVAL_PERSON_ORGANIZATION ( #144, #162, #158 ) ;
#181 = FACE_OUTER_BOUND ( 'NONE', #215, .T. ) ;
#182 = VERTEX_POINT ( 'NONE', #88 ) ;
#183 = ORIENTED_EDGE ( 'NONE', *, *, #206, .F. ) ;
#184 = DIRECTION ( 'NONE',  ( -3.491481338843133355E-15, 1.224646799147353207E-16, -1.000000000000000000 ) ) ;
#185 = APPROVAL ( #3, 'UNSPECIFIED' ) ;
#186 = ORIENTED_EDGE ( 'NONE', *, *, #174, .T. ) ;
#187 = DIRECTION ( 'NONE',  ( -3.491481338843133355E-15, 1.224646799147353207E-16, -1.000000000000000000 ) ) ;
#188 = FACE_OUTER_BOUND ( 'NONE', #31, .T. ) ;
#189 = VERTEX_POINT ( 'NONE', #153 ) ;
#190 = APPROVAL_ROLE ( '' ) ;
#191 = PRODUCT_DEFINITION_FORMATION_WITH_SPECIFIED_SOURCE ( 'ANY', '', #99, .NOT_KNOWN. ) ;
#192 = PERSON_AND_ORGANIZATION ( #19, #208 ) ;
#193 = PERSON_AND_ORGANIZATION_ROLE ( 'classification_officer' ) ;
#194 = CIRCLE ( 'NONE', #161, 1.199999999999999956 ) ;
#195 = LOCAL_TIME ( 9, 48, 50.00000000000000000, #125 ) ;
#196 = ORIENTED_EDGE ( 'NONE', *, *, #206, .T. ) ;
#197 = CC_DESIGN_APPROVAL ( #162, ( #159 ) ) ;
#198 = ADVANCED_FACE ( 'NONE', ( #32 ), #105, .F. ) ;
#199 = EDGE_LOOP ( 'NONE', ( #163 ) ) ;
#200 = PLANE ( 'NONE',  #143 ) ;
#201 = CARTESIAN_POINT ( 'NONE',  ( 1.316288464743861212E-13, 1.499999999999995337, 37.69999999999999574 ) ) ;
#202 = CARTESIAN_POINT ( 'NONE',  ( 1.316288464743861212E-13, -4.616918432785521081E-15, 37.69999999999999574 ) ) ;
#203 = DIRECTION ( 'NONE',  ( -1.000000000000000000, 0.0000000000000000000, 3.469446951953614189E-15 ) ) ;
#204 = CARTESIAN_POINT ( 'NONE',  ( 1.326762908760390423E-13, 8.998558695971077224E-33, 38.00000000000000000 ) ) ;
#205 = FACE_OUTER_BOUND ( 'NONE', #199, .T. ) ;
#206 = EDGE_CURVE ( 'NONE', #30, #30, #194, .T. ) ;
#207 = DIRECTION ( 'NONE',  ( 3.491481338843133355E-15, -1.224646799147353207E-16, 1.000000000000000000 ) ) ;
#208 = ORGANIZATION ( 'UNSPECIFIED', 'UNSPECIFIED', '' ) ;
#209 = APPROVAL_STATUS ( 'not_yet_approved' ) ;
#210 = DIRECTION ( 'NONE',  ( 0.0000000000000000000, 0.0000000000000000000, 1.000000000000000000 ) ) ;
#211 = MECHANICAL_CONTEXT ( 'NONE', #57, 'mechanical' ) ;
#212 = CIRCLE ( 'NONE', #126, 0.1500000000000008271 ) ;
#213 = PERSON_AND_ORGANIZATION_ROLE ( 'creator' ) ;
#214 = ADVANCED_BREP_SHAPE_REPRESENTATION ( '977779', ( #51, #43, #109 ), #69 ) ;
#215 = EDGE_LOOP ( 'NONE', ( #8 ) ) ;
#216 = EDGE_LOOP ( 'NONE', ( #186 ) ) ;
#217 = CARTESIAN_POINT ( 'NONE',  ( -1.282749433769087582E-30, 0.0000000000000000000, -3.673940397442059375E-16 ) ) ;
#218 = AXIS2_PLACEMENT_3D ( 'NONE', #86, #13, #137 ) ;
#219 = CARTESIAN_POINT ( 'NONE',  ( 1.047444401652939612E-15, 0.0000000000000000000, 0.2999999999999999334 ) ) ;
#220 = CARTESIAN_POINT ( 'NONE',  ( 1.047444401652933696E-15, 0.0000000000000000000, 0.2999999999999981570 ) ) ;
#221 = CARTESIAN_POINT ( 'NONE',  ( 1.316288464743861212E-13, -4.616918432785521081E-15, 37.69999999999999574 ) ) ;
#222 = CARTESIAN_POINT ( 'NONE',  ( 1.326762908760390423E-13, 1.199999999999995293, 38.00000000000000000 ) ) ;
#223 = CLOSED_SHELL ( 'NONE', ( #81, #142, #121 ) ) ;
ENDSEC;
END-ISO-10303-21;
