ISO-10303-21;
HEADER;
FILE_DESCRIPTION (( 'STEP AP203' ),
    '1' );
FILE_NAME ('977545.step',
    '2021-12-07T09:17:59',
    ( '' ),
    ( '' ),
    'SwSTEP 2.0',
    'SolidWorks 2019',
    '' );
FILE_SCHEMA (( 'CONFIG_CONTROL_DESIGN' ));
ENDSEC;

DATA;
#1 = VERTEX_POINT ( 'NONE', #103 ) ;
#2 = DIRECTION ( 'NONE',  ( -3.491481338843133355E-15, 1.224646799147353207E-16, -1.000000000000000000 ) ) ;
#3 = DIRECTION ( 'NONE',  ( 4.202028969572151271E-31, 1.000000000000000000, 1.182766006347823109E-16 ) ) ;
#4 = CIRCLE ( 'NONE', #20, 50.00000000000000000 ) ;
#5 = EDGE_CURVE ( 'NONE', #19, #19, #23, .T. ) ;
#6 = MANIFOLD_SOLID_BREP ( 'Corps-Déplacer/Copier1', #30 ) ;
#7 = DIRECTION ( 'NONE',  ( -3.491481338843133355E-15, 1.224646799147353207E-16, -1.000000000000000000 ) ) ;
#8 = APPLICATION_CONTEXT ( 'configuration controlled 3d designs of mechanical parts and assemblies' ) ;
#9 = PERSON_AND_ORGANIZATION ( #118, #153 ) ;
#10 = APPROVAL_PERSON_ORGANIZATION ( #40, #125, #86 ) ;
#11 = CC_DESIGN_PERSON_AND_ORGANIZATION_ASSIGNMENT ( #32, #12, ( #25 ) ) ;
#12 = PERSON_AND_ORGANIZATION_ROLE ( 'design_supplier' ) ;
#13 = CALENDAR_DATE ( 2021, 7, 12 ) ;
#14 = DATE_TIME_ROLE ( 'creation_date' ) ;
#15 = CALENDAR_DATE ( 2021, 7, 12 ) ;
#16 = EDGE_LOOP ( 'NONE', ( #37 ) ) ;
#17 = ADVANCED_FACE ( 'NONE', ( #154, #113 ), #119, .F. ) ;
#18 = FACE_OUTER_BOUND ( 'NONE', #105, .T. ) ;
#19 = VERTEX_POINT ( 'NONE', #91 ) ;
#20 = AXIS2_PLACEMENT_3D ( 'NONE', #114, #36, #22 ) ;
#21 = EDGE_CURVE ( 'NONE', #156, #156, #144, .T. ) ;
#22 = DIRECTION ( 'NONE',  ( 4.275831445896958607E-31, 1.000000000000000000, 1.224646799147353207E-16 ) ) ;
#23 = CIRCLE ( 'NONE', #59, 11.00000000000000000 ) ;
#24 = APPROVAL ( #96, 'UNSPECIFIED' ) ;
#25 = PRODUCT_DEFINITION_FORMATION_WITH_SPECIFIED_SOURCE ( 'ANY', '', #94, .NOT_KNOWN. ) ;
#26 = EDGE_LOOP ( 'NONE', ( #72 ) ) ;
#27 = APPROVAL_STATUS ( 'not_yet_approved' ) ;
#28 = DIRECTION ( 'NONE',  ( 4.314083075427408311E-31, 1.000000000000000000, 1.214306433183764966E-16 ) ) ;
#29 = COORDINATED_UNIVERSAL_TIME_OFFSET ( 1, 0, .AHEAD. ) ;
#30 = CLOSED_SHELL ( 'NONE', ( #69, #17, #54, #104 ) ) ;
#31 = DATE_AND_TIME ( #15, #41 ) ;
#32 = PERSON_AND_ORGANIZATION ( #118, #153 ) ;
#33 = PRODUCT_DEFINITION_SHAPE ( 'NONE', 'NONE',  #95 ) ;
#34 = ORIENTED_EDGE ( 'NONE', *, *, #21, .T. ) ;
#35 =( NAMED_UNIT ( * ) SI_UNIT ( $, .STERADIAN. ) SOLID_ANGLE_UNIT ( ) );
#36 = DIRECTION ( 'NONE',  ( -3.491481338843133355E-15, 1.224646799147353207E-16, -1.000000000000000000 ) ) ;
#37 = ORIENTED_EDGE ( 'NONE', *, *, #5, .T. ) ;
#38 = CARTESIAN_POINT ( 'NONE',  ( 0.0000000000000000000, 0.0000000000000000000, 0.0000000000000000000 ) ) ;
#39 = PERSON_AND_ORGANIZATION ( #118, #153 ) ;
#40 = PERSON_AND_ORGANIZATION ( #118, #153 ) ;
#41 = LOCAL_TIME ( 10, 17, 59.00000000000000000, #138 ) ;
#42 = APPROVAL_ROLE ( '' ) ;
#43 = APPLICATION_PROTOCOL_DEFINITION ( 'international standard', 'config_control_design', 1994, #97 ) ;
#44 = EDGE_LOOP ( 'NONE', ( #140 ) ) ;
#45 = AXIS2_PLACEMENT_3D ( 'NONE', #143, #131, #116 ) ;
#46 = FACE_BOUND ( 'NONE', #126, .T. ) ;
#47 = APPROVAL ( #77, 'UNSPECIFIED' ) ;
#48 =( NAMED_UNIT ( * ) PLANE_ANGLE_UNIT ( ) SI_UNIT ( $, .RADIAN. ) );
#49 = LOCAL_TIME ( 10, 17, 59.00000000000000000, #76 ) ;
#50 = CC_DESIGN_APPROVAL ( #47, ( #25 ) ) ;
#51 = CC_DESIGN_DATE_AND_TIME_ASSIGNMENT ( #88, #14, ( #95 ) ) ;
#52 = PERSON_AND_ORGANIZATION_ROLE ( 'creator' ) ;
#53 = APPROVAL_DATE_TIME ( #31, #24 ) ;
#54 = ADVANCED_FACE ( 'NONE', ( #169, #18 ), #102, .T. ) ;
#55 = COORDINATED_UNIVERSAL_TIME_OFFSET ( 1, 0, .AHEAD. ) ;
#56 = FACE_OUTER_BOUND ( 'NONE', #99, .T. ) ;
#57 = CARTESIAN_POINT ( 'NONE',  ( 2.793185071074494457E-15, 11.00000000000000000, 0.7999999999999964917 ) ) ;
#58 = LOCAL_TIME ( 10, 17, 59.00000000000000000, #55 ) ;
#59 = AXIS2_PLACEMENT_3D ( 'NONE', #147, #152, #128 ) ;
#60 = EDGE_LOOP ( 'NONE', ( #162 ) ) ;
#61 = PERSON_AND_ORGANIZATION ( #118, #153 ) ;
#62 = PERSON_AND_ORGANIZATION_ROLE ( 'classification_officer' ) ;
#63 = DATE_AND_TIME ( #148, #111 ) ;
#64 = DIRECTION ( 'NONE',  ( -4.275831445896958607E-31, -1.000000000000000000, -1.224646799147353207E-16 ) ) ;
#65 = VERTEX_POINT ( 'NONE', #57 ) ;
#66 = SECURITY_CLASSIFICATION ( '', '', #109 ) ;
#67 = DIRECTION ( 'NONE',  ( -3.491481338843133355E-15, 1.224646799147353207E-16, -1.000000000000000000 ) ) ;
#68 =( LENGTH_UNIT ( ) NAMED_UNIT ( * ) SI_UNIT ( .MILLI., .METRE. ) );
#69 = ADVANCED_FACE ( 'NONE', ( #56, #46 ), #90, .T. ) ;
#70 = AXIS2_PLACEMENT_3D ( 'NONE', #89, #150, #74 ) ;
#71 = CIRCLE ( 'NONE', #141, 11.00000000000000000 ) ;
#72 = ORIENTED_EDGE ( 'NONE', *, *, #160, .F. ) ;
#73 = CARTESIAN_POINT ( 'NONE',  ( 2.793185071074500373E-15, 50.00000000000000000, 0.7999999999999981570 ) ) ;
#74 = DIRECTION ( 'NONE',  ( 1.000000000000000000, 0.0000000000000000000, 0.0000000000000000000 ) ) ;
#75 = CC_DESIGN_DATE_AND_TIME_ASSIGNMENT ( #84, #78, ( #66 ) ) ;
#76 = COORDINATED_UNIVERSAL_TIME_OFFSET ( 1, 0, .AHEAD. ) ;
#77 = APPROVAL_STATUS ( 'not_yet_approved' ) ;
#78 = DATE_TIME_ROLE ( 'classification_date' ) ;
#79 = DIRECTION ( 'NONE',  ( -3.491481338843133355E-15, 1.224646799147353207E-16, -1.000000000000000000 ) ) ;
#80 = DIRECTION ( 'NONE',  ( 4.275831445896958607E-31, 1.000000000000000000, 1.224646799147353207E-16 ) ) ;
#81 = CC_DESIGN_PERSON_AND_ORGANIZATION_ASSIGNMENT ( #134, #52, ( #25 ) ) ;
#82 = APPROVAL_PERSON_ORGANIZATION ( #151, #24, #42 ) ;
#83 = EDGE_LOOP ( 'NONE', ( #34 ) ) ;
#84 = DATE_AND_TIME ( #163, #58 ) ;
#85 = DESIGN_CONTEXT ( 'detailed design', #8, 'design' ) ;
#86 = APPROVAL_ROLE ( '' ) ;
#87 = PERSON_AND_ORGANIZATION_ROLE ( 'design_owner' ) ;
#88 = DATE_AND_TIME ( #13, #49 ) ;
#89 = CARTESIAN_POINT ( 'NONE',  ( 0.0000000000000000000, 0.0000000000000000000, 0.0000000000000000000 ) ) ;
#90 = PLANE ( 'NONE',  #45 ) ;
#91 = CARTESIAN_POINT ( 'NONE',  ( 0.0000000000000000000, 11.00000000000000000, 0.0000000000000000000 ) ) ;
#92 = CYLINDRICAL_SURFACE ( 'NONE', #165, 50.00000000000000000 ) ;
#93 =( GEOMETRIC_REPRESENTATION_CONTEXT ( 3 ) GLOBAL_UNCERTAINTY_ASSIGNED_CONTEXT ( ( #108 ) ) GLOBAL_UNIT_ASSIGNED_CONTEXT ( ( #68, #48, #35 ) ) REPRESENTATION_CONTEXT ( 'NONE', 'WORKASPACE' ) );
#94 = PRODUCT ( '977545', '977545', '', ( #127 ) ) ;
#95 = PRODUCT_DEFINITION ( 'UNKNOWN', '', #25, #85 ) ;
#96 = APPROVAL_STATUS ( 'not_yet_approved' ) ;
#97 = APPLICATION_CONTEXT ( 'configuration controlled 3d designs of mechanical parts and assemblies' ) ;
#98 = PERSON_AND_ORGANIZATION ( #118, #153 ) ;
#99 = EDGE_LOOP ( 'NONE', ( #159 ) ) ;
#100 = PRODUCT_RELATED_PRODUCT_CATEGORY ( 'detail', '', ( #94 ) ) ;
#101 = CALENDAR_DATE ( 2021, 7, 12 ) ;
#102 = PLANE ( 'NONE',  #135 ) ;
#103 = CARTESIAN_POINT ( 'NONE',  ( 0.0000000000000000000, 50.00000000000000000, 0.0000000000000000000 ) ) ;
#104 = ADVANCED_FACE ( 'NONE', ( #145, #117 ), #92, .T. ) ;
#105 = EDGE_LOOP ( 'NONE', ( #146 ) ) ;
#106 = AXIS2_PLACEMENT_3D ( 'NONE', #38, #79, #133 ) ;
#107 = CC_DESIGN_PERSON_AND_ORGANIZATION_ASSIGNMENT ( #98, #87, ( #94 ) ) ;
#108 = UNCERTAINTY_MEASURE_WITH_UNIT (LENGTH_MEASURE( 1.000000000000000082E-05 ), #68, 'distance_accuracy_value', 'NONE');
#109 = SECURITY_CLASSIFICATION_LEVEL ( 'unclassified' ) ;
#110 = SHAPE_DEFINITION_REPRESENTATION ( #33, #122 ) ;
#111 = LOCAL_TIME ( 10, 17, 59.00000000000000000, #29 ) ;
#112 = DATE_AND_TIME ( #101, #158 ) ;
#113 = FACE_OUTER_BOUND ( 'NONE', #60, .T. ) ;
#114 = CARTESIAN_POINT ( 'NONE',  ( -2.137915722948479268E-29, 7.498798913309288477E-31, -6.123233995736766085E-15 ) ) ;
#115 = APPROVAL_PERSON_ORGANIZATION ( #9, #47, #139 ) ;
#116 = DIRECTION ( 'NONE',  ( 4.275831445896958607E-31, 1.000000000000000000, 1.224646799147353207E-16 ) ) ;
#117 = FACE_OUTER_BOUND ( 'NONE', #26, .T. ) ;
#118 = PERSON ( 'UNSPECIFIED', 'UNSPECIFIED', 'UNSPECIFIED', ('UNSPECIFIED'), ('UNSPECIFIED'), ('UNSPECIFIED') ) ;
#119 = CYLINDRICAL_SURFACE ( 'NONE', #106, 11.00000000000000000 ) ;
#120 = CC_DESIGN_PERSON_AND_ORGANIZATION_ASSIGNMENT ( #61, #123, ( #95 ) ) ;
#121 = APPLICATION_PROTOCOL_DEFINITION ( 'international standard', 'config_control_design', 1994, #8 ) ;
#122 = ADVANCED_BREP_SHAPE_REPRESENTATION ( '977545', ( #6, #70 ), #93 ) ;
#123 = PERSON_AND_ORGANIZATION_ROLE ( 'creator' ) ;
#124 = APPROVAL_DATE_TIME ( #63, #47 ) ;
#125 = APPROVAL ( #27, 'UNSPECIFIED' ) ;
#126 = EDGE_LOOP ( 'NONE', ( #166 ) ) ;
#127 = MECHANICAL_CONTEXT ( 'NONE', #97, 'mechanical' ) ;
#128 = DIRECTION ( 'NONE',  ( 4.275831445896957731E-31, 1.000000000000000000, 1.224646799147353207E-16 ) ) ;
#129 = CARTESIAN_POINT ( 'NONE',  ( 0.0000000000000000000, 0.0000000000000000000, 0.0000000000000000000 ) ) ;
#130 = CARTESIAN_POINT ( 'NONE',  ( 2.793185071074489724E-15, -9.797174393178765753E-17, 0.7999999999999951594 ) ) ;
#131 = DIRECTION ( 'NONE',  ( -3.491481338843133355E-15, 1.224646799147353207E-16, -1.000000000000000000 ) ) ;
#132 = CC_DESIGN_SECURITY_CLASSIFICATION ( #66, ( #25 ) ) ;
#133 = DIRECTION ( 'NONE',  ( 4.275831445896957731E-31, 1.000000000000000000, 1.224646799147353207E-16 ) ) ;
#134 = PERSON_AND_ORGANIZATION ( #118, #153 ) ;
#135 = AXIS2_PLACEMENT_3D ( 'NONE', #73, #142, #64 ) ;
#136 = COORDINATED_UNIVERSAL_TIME_OFFSET ( 1, 0, .AHEAD. ) ;
#137 = EDGE_CURVE ( 'NONE', #65, #65, #71, .T. ) ;
#138 = COORDINATED_UNIVERSAL_TIME_OFFSET ( 1, 0, .AHEAD. ) ;
#139 = APPROVAL_ROLE ( '' ) ;
#140 = ORIENTED_EDGE ( 'NONE', *, *, #137, .T. ) ;
#141 = AXIS2_PLACEMENT_3D ( 'NONE', #130, #67, #3 ) ;
#142 = DIRECTION ( 'NONE',  ( 3.491481338843133355E-15, -1.224646799147353207E-16, 1.000000000000000000 ) ) ;
#143 = CARTESIAN_POINT ( 'NONE',  ( 8.337871319499070772E-30, 50.00000000000000000, 2.388061258337339333E-15 ) ) ;
#144 = CIRCLE ( 'NONE', #161, 50.00000000000000000 ) ;
#145 = FACE_OUTER_BOUND ( 'NONE', #83, .T. ) ;
#146 = ORIENTED_EDGE ( 'NONE', *, *, #21, .F. ) ;
#147 = CARTESIAN_POINT ( 'NONE',  ( -4.703414590486653942E-30, 1.649735760928043369E-31, -1.347111479062088405E-15 ) ) ;
#148 = CALENDAR_DATE ( 2021, 7, 12 ) ;
#149 = CC_DESIGN_APPROVAL ( #125, ( #66 ) ) ;
#150 = DIRECTION ( 'NONE',  ( 0.0000000000000000000, 0.0000000000000000000, 1.000000000000000000 ) ) ;
#151 = PERSON_AND_ORGANIZATION ( #118, #153 ) ;
#152 = DIRECTION ( 'NONE',  ( -3.491481338843133355E-15, 1.224646799147353207E-16, -1.000000000000000000 ) ) ;
#153 = ORGANIZATION ( 'UNSPECIFIED', 'UNSPECIFIED', '' ) ;
#154 = FACE_OUTER_BOUND ( 'NONE', #16, .T. ) ;
#155 = CARTESIAN_POINT ( 'NONE',  ( 2.793185071074490118E-15, 50.00000000000000000, 0.7999999999999951594 ) ) ;
#156 = VERTEX_POINT ( 'NONE', #155 ) ;
#157 = CC_DESIGN_APPROVAL ( #24, ( #95 ) ) ;
#158 = LOCAL_TIME ( 10, 17, 59.00000000000000000, #136 ) ;
#159 = ORIENTED_EDGE ( 'NONE', *, *, #160, .T. ) ;
#160 = EDGE_CURVE ( 'NONE', #1, #1, #4, .T. ) ;
#161 = AXIS2_PLACEMENT_3D ( 'NONE', #168, #7, #28 ) ;
#162 = ORIENTED_EDGE ( 'NONE', *, *, #137, .F. ) ;
#163 = CALENDAR_DATE ( 2021, 7, 12 ) ;
#164 = CC_DESIGN_PERSON_AND_ORGANIZATION_ASSIGNMENT ( #39, #62, ( #66 ) ) ;
#165 = AXIS2_PLACEMENT_3D ( 'NONE', #129, #2, #80 ) ;
#166 = ORIENTED_EDGE ( 'NONE', *, *, #5, .F. ) ;
#167 = APPROVAL_DATE_TIME ( #112, #125 ) ;
#168 = CARTESIAN_POINT ( 'NONE',  ( 2.793185071074468424E-15, -9.797174393178693030E-17, 0.7999999999999890532 ) ) ;
#169 = FACE_BOUND ( 'NONE', #44, .T. ) ;
ENDSEC;
END-ISO-10303-21;
