ISO-10303-21;
HEADER;
FILE_DESCRIPTION (( 'STEP AP203' ),
    '1' );
FILE_NAME ('977544.step',
    '2021-12-07T09:17:58',
    ( '' ),
    ( '' ),
    'SwSTEP 2.0',
    'SolidWorks 2019',
    '' );
FILE_SCHEMA (( 'CONFIG_CONTROL_DESIGN' ));
ENDSEC;

DATA;
#1 = PERSON_AND_ORGANIZATION_ROLE ( 'creator' ) ;
#2 = LOCAL_TIME ( 10, 17, 58.00000000000000000, #117 ) ;
#3 = LOCAL_TIME ( 10, 17, 58.00000000000000000, #21 ) ;
#4 = PERSON_AND_ORGANIZATION ( #154, #106 ) ;
#5 = FACE_OUTER_BOUND ( 'NONE', #65, .T. ) ;
#6 =( NAMED_UNIT ( * ) PLANE_ANGLE_UNIT ( ) SI_UNIT ( $, .RADIAN. ) );
#7 = ADVANCED_FACE ( 'NONE', ( #92, #140 ), #46, .F. ) ;
#8 = FACE_BOUND ( 'NONE', #93, .T. ) ;
#9 =( GEOMETRIC_REPRESENTATION_CONTEXT ( 3 ) GLOBAL_UNCERTAINTY_ASSIGNED_CONTEXT ( ( #126 ) ) GLOBAL_UNIT_ASSIGNED_CONTEXT ( ( #137, #6, #144 ) ) REPRESENTATION_CONTEXT ( 'NONE', 'WORKASPACE' ) );
#10 = CC_DESIGN_APPROVAL ( #152, ( #24 ) ) ;
#11 = EDGE_CURVE ( 'NONE', #87, #87, #60, .T. ) ;
#12 = PRODUCT_DEFINITION_SHAPE ( 'NONE', 'NONE',  #165 ) ;
#13 = DIRECTION ( 'NONE',  ( -3.491481338843133355E-15, 1.224646799147353207E-16, -1.000000000000000000 ) ) ;
#14 = APPLICATION_CONTEXT ( 'configuration controlled 3d designs of mechanical parts and assemblies' ) ;
#15 = APPROVAL_DATE_TIME ( #18, #142 ) ;
#16 = DIRECTION ( 'NONE',  ( 1.000000000000000000, 0.0000000000000000000, 0.0000000000000000000 ) ) ;
#17 = FACE_OUTER_BOUND ( 'NONE', #40, .T. ) ;
#18 = DATE_AND_TIME ( #41, #2 ) ;
#19 = AXIS2_PLACEMENT_3D ( 'NONE', #162, #98, #32 ) ;
#20 = CARTESIAN_POINT ( 'NONE',  ( 0.0000000000000000000, 40.00000000000000000, 0.0000000000000000000 ) ) ;
#21 = COORDINATED_UNIVERSAL_TIME_OFFSET ( 1, 0, .AHEAD. ) ;
#22 = ADVANCED_BREP_SHAPE_REPRESENTATION ( '977544', ( #116, #34 ), #9 ) ;
#23 = DATE_AND_TIME ( #48, #3 ) ;
#24 = PRODUCT_DEFINITION_FORMATION_WITH_SPECIFIED_SOURCE ( 'ANY', '', #50, .NOT_KNOWN. ) ;
#25 = DIRECTION ( 'NONE',  ( -3.491481338843133355E-15, 1.224646799147353207E-16, -1.000000000000000000 ) ) ;
#26 = LOCAL_TIME ( 10, 17, 58.00000000000000000, #135 ) ;
#27 = CARTESIAN_POINT ( 'NONE',  ( 3.491481338843116395E-15, -1.224646799147347291E-16, 0.9999999999999952260 ) ) ;
#28 = APPROVAL_DATE_TIME ( #31, #152 ) ;
#29 = CARTESIAN_POINT ( 'NONE',  ( 3.491481338843098645E-15, -1.224646799147341128E-16, 0.9999999999999900080 ) ) ;
#30 = ORIENTED_EDGE ( 'NONE', *, *, #45, .F. ) ;
#31 = DATE_AND_TIME ( #143, #26 ) ;
#32 = DIRECTION ( 'NONE',  ( -4.275831445896958607E-31, -1.000000000000000000, -1.224646799147353207E-16 ) ) ;
#33 = COORDINATED_UNIVERSAL_TIME_OFFSET ( 1, 0, .AHEAD. ) ;
#34 = AXIS2_PLACEMENT_3D ( 'NONE', #71, #43, #16 ) ;
#35 = APPROVAL_ROLE ( '' ) ;
#36 = CARTESIAN_POINT ( 'NONE',  ( -1.710332578358783302E-29, 5.999039130647430431E-31, -4.898587196589413026E-15 ) ) ;
#37 = LOCAL_TIME ( 10, 17, 58.00000000000000000, #47 ) ;
#38 = ORIENTED_EDGE ( 'NONE', *, *, #11, .T. ) ;
#39 = DIRECTION ( 'NONE',  ( 4.275831445896958607E-31, 1.000000000000000000, 1.224646799147353207E-16 ) ) ;
#40 = EDGE_LOOP ( 'NONE', ( #127 ) ) ;
#41 = CALENDAR_DATE ( 2021, 7, 12 ) ;
#42 = DIRECTION ( 'NONE',  ( -3.491481338843133355E-15, 1.224646799147353207E-16, -1.000000000000000000 ) ) ;
#43 = DIRECTION ( 'NONE',  ( 0.0000000000000000000, 0.0000000000000000000, 1.000000000000000000 ) ) ;
#44 = DIRECTION ( 'NONE',  ( 4.275831445896957731E-31, 1.000000000000000000, 1.224646799147353207E-16 ) ) ;
#45 = EDGE_CURVE ( 'NONE', #113, #113, #161, .T. ) ;
#46 = CYLINDRICAL_SURFACE ( 'NONE', #133, 11.00000000000000000 ) ;
#47 = COORDINATED_UNIVERSAL_TIME_OFFSET ( 1, 0, .AHEAD. ) ;
#48 = CALENDAR_DATE ( 2021, 7, 12 ) ;
#49 = CARTESIAN_POINT ( 'NONE',  ( 0.0000000000000000000, 0.0000000000000000000, 0.0000000000000000000 ) ) ;
#50 = PRODUCT ( '977544', '977544', '', ( #164 ) ) ;
#51 = ORIENTED_EDGE ( 'NONE', *, *, #45, .T. ) ;
#52 = PERSON_AND_ORGANIZATION_ROLE ( 'design_supplier' ) ;
#53 = EDGE_LOOP ( 'NONE', ( #30 ) ) ;
#54 = PERSON_AND_ORGANIZATION_ROLE ( 'classification_officer' ) ;
#55 = FACE_BOUND ( 'NONE', #53, .T. ) ;
#56 = DATE_TIME_ROLE ( 'creation_date' ) ;
#57 = AXIS2_PLACEMENT_3D ( 'NONE', #36, #13, #39 ) ;
#58 = CC_DESIGN_APPROVAL ( #74, ( #120 ) ) ;
#59 = EDGE_CURVE ( 'NONE', #81, #81, #72, .T. ) ;
#60 = CIRCLE ( 'NONE', #64, 11.00000000000000000 ) ;
#61 = APPROVAL_PERSON_ORGANIZATION ( #4, #152, #146 ) ;
#62 = FACE_OUTER_BOUND ( 'NONE', #157, .T. ) ;
#63 = DIRECTION ( 'NONE',  ( 4.275831445896958607E-31, 1.000000000000000000, 1.224646799147353207E-16 ) ) ;
#64 = AXIS2_PLACEMENT_3D ( 'NONE', #27, #129, #138 ) ;
#65 = EDGE_LOOP ( 'NONE', ( #78 ) ) ;
#66 = CARTESIAN_POINT ( 'NONE',  ( -4.703414590486653942E-30, 1.649735760928043369E-31, -1.347111479062088405E-15 ) ) ;
#67 = PERSON_AND_ORGANIZATION ( #154, #106 ) ;
#68 = ORIENTED_EDGE ( 'NONE', *, *, #110, .F. ) ;
#69 = AXIS2_PLACEMENT_3D ( 'NONE', #109, #160, #63 ) ;
#70 = PLANE ( 'NONE',  #19 ) ;
#71 = CARTESIAN_POINT ( 'NONE',  ( 0.0000000000000000000, 0.0000000000000000000, 0.0000000000000000000 ) ) ;
#72 = CIRCLE ( 'NONE', #155, 40.00000000000000000 ) ;
#73 = DATE_TIME_ROLE ( 'classification_date' ) ;
#74 = APPROVAL ( #150, 'UNSPECIFIED' ) ;
#75 = APPROVAL_DATE_TIME ( #23, #74 ) ;
#76 = ADVANCED_FACE ( 'NONE', ( #5, #55 ), #79, .T. ) ;
#77 = PRODUCT_RELATED_PRODUCT_CATEGORY ( 'detail', '', ( #50 ) ) ;
#78 = ORIENTED_EDGE ( 'NONE', *, *, #110, .T. ) ;
#79 = PLANE ( 'NONE',  #69 ) ;
#80 = LOCAL_TIME ( 10, 17, 58.00000000000000000, #33 ) ;
#81 = VERTEX_POINT ( 'NONE', #124 ) ;
#82 = ORIENTED_EDGE ( 'NONE', *, *, #59, .T. ) ;
#83 = PERSON_AND_ORGANIZATION_ROLE ( 'creator' ) ;
#84 = ORIENTED_EDGE ( 'NONE', *, *, #11, .F. ) ;
#85 = APPROVAL_STATUS ( 'not_yet_approved' ) ;
#86 = CC_DESIGN_PERSON_AND_ORGANIZATION_ASSIGNMENT ( #99, #131, ( #50 ) ) ;
#87 = VERTEX_POINT ( 'NONE', #153 ) ;
#88 = CALENDAR_DATE ( 2021, 7, 12 ) ;
#89 = CC_DESIGN_PERSON_AND_ORGANIZATION_ASSIGNMENT ( #130, #52, ( #24 ) ) ;
#90 = CC_DESIGN_DATE_AND_TIME_ASSIGNMENT ( #123, #56, ( #165 ) ) ;
#91 = CARTESIAN_POINT ( 'NONE',  ( 0.0000000000000000000, 11.00000000000000000, 0.0000000000000000000 ) ) ;
#92 = FACE_OUTER_BOUND ( 'NONE', #159, .T. ) ;
#93 = EDGE_LOOP ( 'NONE', ( #38 ) ) ;
#94 = APPROVAL_PERSON_ORGANIZATION ( #112, #74, #35 ) ;
#95 = DIRECTION ( 'NONE',  ( 4.275831445896957731E-31, 1.000000000000000000, 1.224646799147353207E-16 ) ) ;
#96 = PERSON_AND_ORGANIZATION ( #154, #106 ) ;
#97 = PERSON_AND_ORGANIZATION ( #154, #106 ) ;
#98 = DIRECTION ( 'NONE',  ( 3.491481338843133355E-15, -1.224646799147353207E-16, 1.000000000000000000 ) ) ;
#99 = PERSON_AND_ORGANIZATION ( #154, #106 ) ;
#100 = ADVANCED_FACE ( 'NONE', ( #8, #17 ), #70, .T. ) ;
#101 = DIRECTION ( 'NONE',  ( -3.491481338843133355E-15, 1.224646799147353207E-16, -1.000000000000000000 ) ) ;
#102 = DATE_AND_TIME ( #88, #37 ) ;
#103 = CC_DESIGN_DATE_AND_TIME_ASSIGNMENT ( #102, #73, ( #120 ) ) ;
#104 = CC_DESIGN_PERSON_AND_ORGANIZATION_ASSIGNMENT ( #97, #1, ( #165 ) ) ;
#105 = APPROVAL_ROLE ( '' ) ;
#106 = ORGANIZATION ( 'UNSPECIFIED', 'UNSPECIFIED', '' ) ;
#107 = SECURITY_CLASSIFICATION_LEVEL ( 'unclassified' ) ;
#108 = EDGE_LOOP ( 'NONE', ( #84 ) ) ;
#109 = CARTESIAN_POINT ( 'NONE',  ( 6.199955596550589542E-30, 40.00000000000000000, 1.775737858763662015E-15 ) ) ;
#110 = EDGE_CURVE ( 'NONE', #136, #136, #166, .T. ) ;
#111 = APPROVAL_STATUS ( 'not_yet_approved' ) ;
#112 = PERSON_AND_ORGANIZATION ( #154, #106 ) ;
#113 = VERTEX_POINT ( 'NONE', #91 ) ;
#114 = CYLINDRICAL_SURFACE ( 'NONE', #119, 40.00000000000000000 ) ;
#115 = CARTESIAN_POINT ( 'NONE',  ( 0.0000000000000000000, 0.0000000000000000000, 0.0000000000000000000 ) ) ;
#116 = MANIFOLD_SOLID_BREP ( 'Corps-Déplacer/Copier1', #139 ) ;
#117 = COORDINATED_UNIVERSAL_TIME_OFFSET ( 1, 0, .AHEAD. ) ;
#118 = EDGE_LOOP ( 'NONE', ( #68 ) ) ;
#119 = AXIS2_PLACEMENT_3D ( 'NONE', #49, #101, #156 ) ;
#120 = SECURITY_CLASSIFICATION ( '', '', #107 ) ;
#121 = DIRECTION ( 'NONE',  ( 4.237045877651918877E-31, 1.000000000000000000, 1.246832498358330099E-16 ) ) ;
#122 = ADVANCED_FACE ( 'NONE', ( #62, #169 ), #114, .T. ) ;
#123 = DATE_AND_TIME ( #158, #80 ) ;
#124 = CARTESIAN_POINT ( 'NONE',  ( 3.491481338843115606E-15, 40.00000000000000000, 0.9999999999999950040 ) ) ;
#125 = AXIS2_PLACEMENT_3D ( 'NONE', #66, #25, #95 ) ;
#126 = UNCERTAINTY_MEASURE_WITH_UNIT (LENGTH_MEASURE( 1.000000000000000082E-05 ), #137, 'distance_accuracy_value', 'NONE');
#127 = ORIENTED_EDGE ( 'NONE', *, *, #59, .F. ) ;
#128 = APPLICATION_CONTEXT ( 'configuration controlled 3d designs of mechanical parts and assemblies' ) ;
#129 = DIRECTION ( 'NONE',  ( -3.491481338843133355E-15, 1.224646799147353207E-16, -1.000000000000000000 ) ) ;
#130 = PERSON_AND_ORGANIZATION ( #154, #106 ) ;
#131 = PERSON_AND_ORGANIZATION_ROLE ( 'design_owner' ) ;
#132 = DIRECTION ( 'NONE',  ( -3.491481338843133355E-15, 1.224646799147353207E-16, -1.000000000000000000 ) ) ;
#133 = AXIS2_PLACEMENT_3D ( 'NONE', #115, #42, #44 ) ;
#134 = PERSON_AND_ORGANIZATION ( #154, #106 ) ;
#135 = COORDINATED_UNIVERSAL_TIME_OFFSET ( 1, 0, .AHEAD. ) ;
#136 = VERTEX_POINT ( 'NONE', #20 ) ;
#137 =( LENGTH_UNIT ( ) NAMED_UNIT ( * ) SI_UNIT ( .MILLI., .METRE. ) );
#138 = DIRECTION ( 'NONE',  ( 4.202028969572151271E-31, 1.000000000000000000, 1.182766006347823109E-16 ) ) ;
#139 = CLOSED_SHELL ( 'NONE', ( #76, #7, #100, #122 ) ) ;
#140 = FACE_OUTER_BOUND ( 'NONE', #108, .T. ) ;
#141 = APPLICATION_PROTOCOL_DEFINITION ( 'international standard', 'config_control_design', 1994, #14 ) ;
#142 = APPROVAL ( #85, 'UNSPECIFIED' ) ;
#143 = CALENDAR_DATE ( 2021, 7, 12 ) ;
#144 =( NAMED_UNIT ( * ) SI_UNIT ( $, .STERADIAN. ) SOLID_ANGLE_UNIT ( ) );
#145 = CC_DESIGN_SECURITY_CLASSIFICATION ( #120, ( #24 ) ) ;
#146 = APPROVAL_ROLE ( '' ) ;
#147 = APPLICATION_PROTOCOL_DEFINITION ( 'international standard', 'config_control_design', 1994, #128 ) ;
#148 = CC_DESIGN_PERSON_AND_ORGANIZATION_ASSIGNMENT ( #134, #83, ( #24 ) ) ;
#149 = APPROVAL_PERSON_ORGANIZATION ( #67, #142, #105 ) ;
#150 = APPROVAL_STATUS ( 'not_yet_approved' ) ;
#151 = SHAPE_DEFINITION_REPRESENTATION ( #12, #22 ) ;
#152 = APPROVAL ( #111, 'UNSPECIFIED' ) ;
#153 = CARTESIAN_POINT ( 'NONE',  ( 3.491481338843121128E-15, 11.00000000000000000, 0.9999999999999965583 ) ) ;
#154 = PERSON ( 'UNSPECIFIED', 'UNSPECIFIED', 'UNSPECIFIED', ('UNSPECIFIED'), ('UNSPECIFIED'), ('UNSPECIFIED') ) ;
#155 = AXIS2_PLACEMENT_3D ( 'NONE', #29, #132, #121 ) ;
#156 = DIRECTION ( 'NONE',  ( 4.275831445896958607E-31, 1.000000000000000000, 1.224646799147353207E-16 ) ) ;
#157 = EDGE_LOOP ( 'NONE', ( #82 ) ) ;
#158 = CALENDAR_DATE ( 2021, 7, 12 ) ;
#159 = EDGE_LOOP ( 'NONE', ( #51 ) ) ;
#160 = DIRECTION ( 'NONE',  ( -3.491481338843133355E-15, 1.224646799147353207E-16, -1.000000000000000000 ) ) ;
#161 = CIRCLE ( 'NONE', #125, 11.00000000000000000 ) ;
#162 = CARTESIAN_POINT ( 'NONE',  ( 3.491481338843124283E-15, 40.00000000000000000, 0.9999999999999974465 ) ) ;
#163 = CC_DESIGN_APPROVAL ( #142, ( #165 ) ) ;
#164 = MECHANICAL_CONTEXT ( 'NONE', #14, 'mechanical' ) ;
#165 = PRODUCT_DEFINITION ( 'UNKNOWN', '', #24, #168 ) ;
#166 = CIRCLE ( 'NONE', #57, 40.00000000000000000 ) ;
#167 = CC_DESIGN_PERSON_AND_ORGANIZATION_ASSIGNMENT ( #96, #54, ( #120 ) ) ;
#168 = DESIGN_CONTEXT ( 'detailed design', #128, 'design' ) ;
#169 = FACE_OUTER_BOUND ( 'NONE', #118, .T. ) ;
ENDSEC;
END-ISO-10303-21;
