ISO-10303-21;
HEADER;
FILE_DESCRIPTION (( 'STEP AP203' ),
    '1' );
FILE_NAME ('977543.step',
    '2021-12-07T09:17:57',
    ( '' ),
    ( '' ),
    'SwSTEP 2.0',
    'SolidWorks 2019',
    '' );
FILE_SCHEMA (( 'CONFIG_CONTROL_DESIGN' ));
ENDSEC;

DATA;
#1 = PERSON_AND_ORGANIZATION ( #65, #49 ) ;
#2 = CC_DESIGN_PERSON_AND_ORGANIZATION_ASSIGNMENT ( #1, #60, ( #136 ) ) ;
#3 = PERSON_AND_ORGANIZATION_ROLE ( 'design_owner' ) ;
#4 = CALENDAR_DATE ( 2021, 7, 12 ) ;
#5 = ADVANCED_FACE ( 'NONE', ( #143, #16 ), #152, .T. ) ;
#6 = AXIS2_PLACEMENT_3D ( 'NONE', #43, #17, #45 ) ;
#7 = APPROVAL_DATE_TIME ( #104, #38 ) ;
#8 = PERSON_AND_ORGANIZATION ( #65, #49 ) ;
#9 = EDGE_LOOP ( 'NONE', ( #77 ) ) ;
#10 = AXIS2_PLACEMENT_3D ( 'NONE', #165, #92, #34 ) ;
#11 = CARTESIAN_POINT ( 'NONE',  ( 2.793185071074507079E-15, 11.00000000000000000, 0.8000000000000001554 ) ) ;
#12 = FACE_OUTER_BOUND ( 'NONE', #23, .T. ) ;
#13 = CC_DESIGN_DATE_AND_TIME_ASSIGNMENT ( #93, #75, ( #111 ) ) ;
#14 = CYLINDRICAL_SURFACE ( 'NONE', #10, 11.00000000000000000 ) ;
#15 = AXIS2_PLACEMENT_3D ( 'NONE', #80, #144, #69 ) ;
#16 = FACE_BOUND ( 'NONE', #155, .T. ) ;
#17 = DIRECTION ( 'NONE',  ( 3.491481338843133355E-15, -1.530808498934191078E-16, 1.000000000000000000 ) ) ;
#18 = PERSON_AND_ORGANIZATION ( #65, #49 ) ;
#19 = LOCAL_TIME ( 10, 17, 57.00000000000000000, #36 ) ;
#20 = APPROVAL_STATUS ( 'not_yet_approved' ) ;
#21 = SECURITY_CLASSIFICATION_LEVEL ( 'unclassified' ) ;
#22 = APPROVAL_DATE_TIME ( #156, #51 ) ;
#23 = EDGE_LOOP ( 'NONE', ( #106 ) ) ;
#24 = ADVANCED_FACE ( 'NONE', ( #115, #55 ), #130, .T. ) ;
#25 = EDGE_CURVE ( 'NONE', #81, #81, #122, .T. ) ;
#26 = ORIENTED_EDGE ( 'NONE', *, *, #157, .T. ) ;
#27 = FACE_OUTER_BOUND ( 'NONE', #137, .T. ) ;
#28 = CC_DESIGN_APPROVAL ( #38, ( #136 ) ) ;
#29 = FACE_OUTER_BOUND ( 'NONE', #76, .T. ) ;
#30 = ADVANCED_FACE ( 'NONE', ( #12, #31 ), #44, .T. ) ;
#31 = FACE_OUTER_BOUND ( 'NONE', #9, .T. ) ;
#32 = CARTESIAN_POINT ( 'NONE',  ( 2.793185071074507473E-15, 39.99999999999998579, 0.8000000000000001554 ) ) ;
#33 = CC_DESIGN_APPROVAL ( #51, ( #111 ) ) ;
#34 = DIRECTION ( 'NONE',  ( 5.344789307371196069E-31, 1.000000000000000000, 1.530808498934191078E-16 ) ) ;
#35 = APPROVAL ( #63, 'UNSPECIFIED' ) ;
#36 = COORDINATED_UNIVERSAL_TIME_OFFSET ( 1, 0, .AHEAD. ) ;
#37 = PERSON_AND_ORGANIZATION ( #65, #49 ) ;
#38 = APPROVAL ( #150, 'UNSPECIFIED' ) ;
#39 = CLOSED_SHELL ( 'NONE', ( #5, #64, #24, #30 ) ) ;
#40 = EDGE_LOOP ( 'NONE', ( #107 ) ) ;
#41 = DIRECTION ( 'NONE',  ( 5.344789307371196944E-31, 1.000000000000000000, 1.530808498934191078E-16 ) ) ;
#42 = AXIS2_PLACEMENT_3D ( 'NONE', #128, #58, #54 ) ;
#43 = CARTESIAN_POINT ( 'NONE',  ( 2.793185071074514573E-15, 39.99999999999998579, 0.8000000000000022649 ) ) ;
#44 = CYLINDRICAL_SURFACE ( 'NONE', #148, 39.99999999999999289 ) ;
#45 = DIRECTION ( 'NONE',  ( -5.344789307371196944E-31, -1.000000000000000000, -1.530808498934191078E-16 ) ) ;
#46 = CALENDAR_DATE ( 2021, 7, 12 ) ;
#47 = DATE_AND_TIME ( #102, #133 ) ;
#48 = APPROVAL_DATE_TIME ( #50, #35 ) ;
#49 = ORGANIZATION ( 'UNSPECIFIED', 'UNSPECIFIED', '' ) ;
#50 = DATE_AND_TIME ( #46, #159 ) ;
#51 = APPROVAL ( #20, 'UNSPECIFIED' ) ;
#52 = AXIS2_PLACEMENT_3D ( 'NONE', #145, #70, #41 ) ;
#53 = PRODUCT_RELATED_PRODUCT_CATEGORY ( 'detail', '', ( #96 ) ) ;
#54 = DIRECTION ( 'NONE',  ( 5.252536211965189088E-31, 1.000000000000000000, 1.577021341797097314E-16 ) ) ;
#55 = FACE_OUTER_BOUND ( 'NONE', #123, .T. ) ;
#56 = CARTESIAN_POINT ( 'NONE',  ( 7.749944495688235526E-30, 40.00000000000000000, 2.219672323454576927E-15 ) ) ;
#57 = EDGE_CURVE ( 'NONE', #169, #169, #163, .T. ) ;
#58 = DIRECTION ( 'NONE',  ( -3.491481338843133355E-15, 1.530808498934191078E-16, -1.000000000000000000 ) ) ;
#59 = APPROVAL_PERSON_ORGANIZATION ( #8, #35, #85 ) ;
#60 = PERSON_AND_ORGANIZATION_ROLE ( 'classification_officer' ) ;
#61 = PERSON_AND_ORGANIZATION_ROLE ( 'creator' ) ;
#62 = MECHANICAL_CONTEXT ( 'NONE', #162, 'mechanical' ) ;
#63 = APPROVAL_STATUS ( 'not_yet_approved' ) ;
#64 = ADVANCED_FACE ( 'NONE', ( #27, #29 ), #14, .F. ) ;
#65 = PERSON ( 'UNSPECIFIED', 'UNSPECIFIED', 'UNSPECIFIED', ('UNSPECIFIED'), ('UNSPECIFIED'), ('UNSPECIFIED') ) ;
#66 = AXIS2_PLACEMENT_3D ( 'NONE', #56, #164, #167 ) ;
#67 = CARTESIAN_POINT ( 'NONE',  ( 2.793185071074485779E-15, -1.224646799147343839E-16, 0.7999999999999940492 ) ) ;
#68 = CC_DESIGN_SECURITY_CLASSIFICATION ( #136, ( #124 ) ) ;
#69 = DIRECTION ( 'NONE',  ( 5.344789307371196069E-31, 1.000000000000000000, 1.530808498934191078E-16 ) ) ;
#70 = DIRECTION ( 'NONE',  ( -3.491481338843133355E-15, 1.530808498934191078E-16, -1.000000000000000000 ) ) ;
#71 = AXIS2_PLACEMENT_3D ( 'NONE', #67, #91, #112 ) ;
#72 = PERSON_AND_ORGANIZATION ( #65, #49 ) ;
#73 = PERSON_AND_ORGANIZATION ( #65, #49 ) ;
#74 = CC_DESIGN_PERSON_AND_ORGANIZATION_ASSIGNMENT ( #18, #3, ( #96 ) ) ;
#75 = DATE_TIME_ROLE ( 'creation_date' ) ;
#76 = EDGE_LOOP ( 'NONE', ( #141 ) ) ;
#77 = ORIENTED_EDGE ( 'NONE', *, *, #157, .F. ) ;
#78 =( NAMED_UNIT ( * ) PLANE_ANGLE_UNIT ( ) SI_UNIT ( $, .RADIAN. ) );
#79 =( LENGTH_UNIT ( ) NAMED_UNIT ( * ) SI_UNIT ( .MILLI., .METRE. ) );
#80 = CARTESIAN_POINT ( 'NONE',  ( -5.879268238108315325E-30, 2.577712126450065861E-31, -1.683889348827610062E-15 ) ) ;
#81 = VERTEX_POINT ( 'NONE', #113 ) ;
#82 = COORDINATED_UNIVERSAL_TIME_OFFSET ( 1, 0, .AHEAD. ) ;
#83 = COORDINATED_UNIVERSAL_TIME_OFFSET ( 1, 0, .AHEAD. ) ;
#84 = APPROVAL_ROLE ( '' ) ;
#85 = APPROVAL_ROLE ( '' ) ;
#86 = DIRECTION ( 'NONE',  ( 0.0000000000000000000, 0.0000000000000000000, 1.000000000000000000 ) ) ;
#87 = CC_DESIGN_PERSON_AND_ORGANIZATION_ASSIGNMENT ( #72, #147, ( #111 ) ) ;
#88 = CARTESIAN_POINT ( 'NONE',  ( 0.0000000000000000000, 40.00000000000000000, 0.0000000000000000000 ) ) ;
#89 = CC_DESIGN_APPROVAL ( #35, ( #124 ) ) ;
#90 = DIRECTION ( 'NONE',  ( 5.344789307371196944E-31, 1.000000000000000000, 1.530808498934191078E-16 ) ) ;
#91 = DIRECTION ( 'NONE',  ( -3.491481338843133355E-15, 1.530808498934191078E-16, -1.000000000000000000 ) ) ;
#92 = DIRECTION ( 'NONE',  ( -3.491481338843133355E-15, 1.530808498934191078E-16, -1.000000000000000000 ) ) ;
#93 = DATE_AND_TIME ( #134, #138 ) ;
#94 = DATE_TIME_ROLE ( 'classification_date' ) ;
#95 = AXIS2_PLACEMENT_3D ( 'NONE', #132, #86, #118 ) ;
#96 = PRODUCT ( '977543', '977543', '', ( #62 ) ) ;
#97 = COORDINATED_UNIVERSAL_TIME_OFFSET ( 1, 0, .AHEAD. ) ;
#98 =( GEOMETRIC_REPRESENTATION_CONTEXT ( 3 ) GLOBAL_UNCERTAINTY_ASSIGNED_CONTEXT ( ( #140 ) ) GLOBAL_UNIT_ASSIGNED_CONTEXT ( ( #79, #78, #126 ) ) REPRESENTATION_CONTEXT ( 'NONE', 'WORKASPACE' ) );
#99 = LOCAL_TIME ( 10, 17, 57.00000000000000000, #83 ) ;
#100 = DIRECTION ( 'NONE',  ( -3.491481338843133355E-15, 1.530808498934191078E-16, -1.000000000000000000 ) ) ;
#101 = VERTEX_POINT ( 'NONE', #88 ) ;
#102 = CALENDAR_DATE ( 2021, 7, 12 ) ;
#103 = CC_DESIGN_PERSON_AND_ORGANIZATION_ASSIGNMENT ( #37, #116, ( #124 ) ) ;
#104 = DATE_AND_TIME ( #119, #99 ) ;
#105 = COORDINATED_UNIVERSAL_TIME_OFFSET ( 1, 0, .AHEAD. ) ;
#106 = ORIENTED_EDGE ( 'NONE', *, *, #127, .T. ) ;
#107 = ORIENTED_EDGE ( 'NONE', *, *, #57, .T. ) ;
#108 = CC_DESIGN_PERSON_AND_ORGANIZATION_ASSIGNMENT ( #131, #61, ( #124 ) ) ;
#109 = EDGE_LOOP ( 'NONE', ( #26 ) ) ;
#110 = DESIGN_CONTEXT ( 'detailed design', #146, 'design' ) ;
#111 = PRODUCT_DEFINITION ( 'UNKNOWN', '', #124, #110 ) ;
#112 = DIRECTION ( 'NONE',  ( 5.392603844284262140E-31, 1.000000000000000000, 1.517883041479706701E-16 ) ) ;
#113 = CARTESIAN_POINT ( 'NONE',  ( 6.842277657836020854E-46, 11.00000000000000000, 0.0000000000000000000 ) ) ;
#114 = CARTESIAN_POINT ( 'NONE',  ( 0.0000000000000000000, 0.0000000000000000000, 0.0000000000000000000 ) ) ;
#115 = FACE_BOUND ( 'NONE', #40, .T. ) ;
#116 = PERSON_AND_ORGANIZATION_ROLE ( 'design_supplier' ) ;
#117 = PRODUCT_DEFINITION_SHAPE ( 'NONE', 'NONE',  #111 ) ;
#118 = DIRECTION ( 'NONE',  ( 1.000000000000000000, 0.0000000000000000000, 0.0000000000000000000 ) ) ;
#119 = CALENDAR_DATE ( 2021, 7, 12 ) ;
#120 = MANIFOLD_SOLID_BREP ( 'Corps-Déplacer/Copier1', #39 ) ;
#121 = APPROVAL_PERSON_ORGANIZATION ( #135, #51, #158 ) ;
#122 = CIRCLE ( 'NONE', #15, 11.00000000000000000 ) ;
#123 = EDGE_LOOP ( 'NONE', ( #161 ) ) ;
#124 = PRODUCT_DEFINITION_FORMATION_WITH_SPECIFIED_SOURCE ( 'ANY', '', #96, .NOT_KNOWN. ) ;
#125 = ADVANCED_BREP_SHAPE_REPRESENTATION ( '977543', ( #120, #95 ), #98 ) ;
#126 =( NAMED_UNIT ( * ) SI_UNIT ( $, .STERADIAN. ) SOLID_ANGLE_UNIT ( ) );
#127 = EDGE_CURVE ( 'NONE', #154, #154, #166, .T. ) ;
#128 = CARTESIAN_POINT ( 'NONE',  ( 2.793185071074501162E-15, -1.224646799147350495E-16, 0.7999999999999983791 ) ) ;
#129 = APPROVAL_PERSON_ORGANIZATION ( #73, #38, #84 ) ;
#130 = PLANE ( 'NONE',  #6 ) ;
#131 = PERSON_AND_ORGANIZATION ( #65, #49 ) ;
#132 = CARTESIAN_POINT ( 'NONE',  ( 0.0000000000000000000, 0.0000000000000000000, 0.0000000000000000000 ) ) ;
#133 = LOCAL_TIME ( 10, 17, 57.00000000000000000, #97 ) ;
#134 = CALENDAR_DATE ( 2021, 7, 12 ) ;
#135 = PERSON_AND_ORGANIZATION ( #65, #49 ) ;
#136 = SECURITY_CLASSIFICATION ( '', '', #21 ) ;
#137 = EDGE_LOOP ( 'NONE', ( #139 ) ) ;
#138 = LOCAL_TIME ( 10, 17, 57.00000000000000000, #82 ) ;
#139 = ORIENTED_EDGE ( 'NONE', *, *, #25, .T. ) ;
#140 = UNCERTAINTY_MEASURE_WITH_UNIT (LENGTH_MEASURE( 1.000000000000000082E-05 ), #79, 'distance_accuracy_value', 'NONE');
#141 = ORIENTED_EDGE ( 'NONE', *, *, #57, .F. ) ;
#142 = CIRCLE ( 'NONE', #52, 40.00000000000000000 ) ;
#143 = FACE_OUTER_BOUND ( 'NONE', #109, .T. ) ;
#144 = DIRECTION ( 'NONE',  ( -3.491481338843133355E-15, 1.530808498934191078E-16, -1.000000000000000000 ) ) ;
#145 = CARTESIAN_POINT ( 'NONE',  ( -2.137915722948478708E-29, 9.373498641636605998E-31, -6.123233995736764507E-15 ) ) ;
#146 = APPLICATION_CONTEXT ( 'configuration controlled 3d designs of mechanical parts and assemblies' ) ;
#147 = PERSON_AND_ORGANIZATION_ROLE ( 'creator' ) ;
#148 = AXIS2_PLACEMENT_3D ( 'NONE', #114, #100, #90 ) ;
#149 = SHAPE_DEFINITION_REPRESENTATION ( #117, #125 ) ;
#150 = APPROVAL_STATUS ( 'not_yet_approved' ) ;
#151 = APPLICATION_PROTOCOL_DEFINITION ( 'international standard', 'config_control_design', 1994, #146 ) ;
#152 = PLANE ( 'NONE',  #66 ) ;
#153 = APPLICATION_PROTOCOL_DEFINITION ( 'international standard', 'config_control_design', 1994, #162 ) ;
#154 = VERTEX_POINT ( 'NONE', #32 ) ;
#155 = EDGE_LOOP ( 'NONE', ( #168 ) ) ;
#156 = DATE_AND_TIME ( #4, #19 ) ;
#157 = EDGE_CURVE ( 'NONE', #101, #101, #142, .T. ) ;
#158 = APPROVAL_ROLE ( '' ) ;
#159 = LOCAL_TIME ( 10, 17, 57.00000000000000000, #105 ) ;
#160 = CC_DESIGN_DATE_AND_TIME_ASSIGNMENT ( #47, #94, ( #136 ) ) ;
#161 = ORIENTED_EDGE ( 'NONE', *, *, #127, .F. ) ;
#162 = APPLICATION_CONTEXT ( 'configuration controlled 3d designs of mechanical parts and assemblies' ) ;
#163 = CIRCLE ( 'NONE', #42, 11.00000000000000000 ) ;
#164 = DIRECTION ( 'NONE',  ( -3.491481338843133355E-15, 1.530808498934191078E-16, -1.000000000000000000 ) ) ;
#165 = CARTESIAN_POINT ( 'NONE',  ( 0.0000000000000000000, 0.0000000000000000000, 0.0000000000000000000 ) ) ;
#166 = CIRCLE ( 'NONE', #71, 39.99999999999998579 ) ;
#167 = DIRECTION ( 'NONE',  ( 5.344789307371196944E-31, 1.000000000000000000, 1.530808498934191078E-16 ) ) ;
#168 = ORIENTED_EDGE ( 'NONE', *, *, #25, .F. ) ;
#169 = VERTEX_POINT ( 'NONE', #11 ) ;
ENDSEC;
END-ISO-10303-21;
